  0
SECTION
  2
HEADER
  9
$ACADVER
  1
AC1012
  9
$DWGCODEPAGE
  3
dos850
  9
$INSBASE
 10
0.0
 20
0.0
 30
0.0
  9
$EXTMIN
 10
11.117161
 20
9.922201
 30
0.0
  9
$EXTMAX
 10
19.45032
 20
15.038562
 30
0.0
  9
$LIMMIN
 10
0.0
 20
0.0
  9
$LIMMAX
 10
0.0
 20
0.0
  9
$ORTHOMODE
 70
     0
  9
$REGENMODE
 70
     1
  9
$FILLMODE
 70
     1
  9
$QTEXTMODE
 70
     0
  9
$MIRRTEXT
 70
     1
  9
$DRAGMODE
 70
     2
  9
$LTSCALE
 40
1.0
  9
$OSMODE
 70
     0
  9
$ATTMODE
 70
     1
  9
$TEXTSIZE
 40
0.2
  9
$TRACEWID
 40
0.05
  9
$TEXTSTYLE
  7
STANDARD
  9
$CLAYER
  8
0
  9
$CELTYPE
  6
CONTINUOUS
  9
$CECOLOR
 62
   256
  9
$CELTSCALE
 40
1.0
  9
$DELOBJ
 70
     1
  9
$DISPSILH
 70
     0
  9
$DIMSCALE
 40
1.0
  9
$DIMASZ
 40
0.18
  9
$DIMEXO
 40
0.0625
  9
$DIMDLI
 40
0.38
  9
$DIMRND
 40
0.0
  9
$DIMDLE
 40
0.0
  9
$DIMEXE
 40
0.18
  9
$DIMTP
 40
0.0
  9
$DIMTM
 40
0.0
  9
$DIMTXT
 40
0.18
  9
$DIMCEN
 40
0.09
  9
$DIMTSZ
 40
0.0
  9
$DIMTOL
 70
     0
  9
$DIMLIM
 70
     0
  9
$DIMTIH
 70
     1
  9
$DIMTOH
 70
     1
  9
$DIMSE1
 70
     0
  9
$DIMSE2
 70
     0
  9
$DIMTAD
 70
     0
  9
$DIMZIN
 70
     0
  9
$DIMBLK
  1

  9
$DIMASO
 70
     1
  9
$DIMSHO
 70
     1
  9
$DIMPOST
  1

  9
$DIMAPOST
  1

  9
$DIMALT
 70
     0
  9
$DIMALTD
 70
     2
  9
$DIMALTF
 40
25.4
  9
$DIMLFAC
 40
1.0
  9
$DIMTOFL
 70
     0
  9
$DIMTVP
 40
0.0
  9
$DIMTIX
 70
     0
  9
$DIMSOXD
 70
     0
  9
$DIMSAH
 70
     0
  9
$DIMBLK1
  1

  9
$DIMBLK2
  1

  9
$DIMSTYLE
  2
STANDARD
  9
$DIMCLRD
 70
     0
  9
$DIMCLRE
 70
     0
  9
$DIMCLRT
 70
     0
  9
$DIMTFAC
 40
1.0
  9
$DIMGAP
 40
0.09
  9
$DIMJUST
 70
     0
  9
$DIMSD1
 70
     0
  9
$DIMSD2
 70
     0
  9
$DIMTOLJ
 70
     1
  9
$DIMTZIN
 70
     0
  9
$DIMALTZ
 70
     0
  9
$DIMALTTZ
 70
     0
  9
$DIMFIT
 70
     3
  9
$DIMUPT
 70
     0
  9
$DIMUNIT
 70
     2
  9
$DIMDEC
 70
     4
  9
$DIMTDEC
 70
     4
  9
$DIMALTU
 70
     2
  9
$DIMALTTD
 70
     2
  9
$DIMTXSTY
  7
STANDARD
  9
$DIMAUNIT
 70
     0
  9
$LUNITS
 70
     2
  9
$LUPREC
 70
     4
  9
$SKETCHINC
 40
0.1
  9
$FILLETRAD
 40
0.0
  9
$AUNITS
 70
     0
  9
$AUPREC
 70
     0
  9
$MENU
  1
acad
  9
$ELEVATION
 40
0.0
  9
$PELEVATION
 40
0.0
  9
$THICKNESS
 40
0.0
  9
$LIMCHECK
 70
     0
  9
$BLIPMODE
 70
     1
  9
$CHAMFERA
 40
0.0
  9
$CHAMFERB
 40
0.0
  9
$CHAMFERC
 40
0.0
  9
$CHAMFERD
 40
0.0
  9
$SKPOLY
 70
     0
  9
$TDCREATE
 40
0.000000000
  9
$TDUPDATE
 40
0.000000000
  9
$TDINDWG
 40
0.0000000000
  9
$TDUSRTIMER
 40
0.0000000000
  9
$USRTIMER
 70
     1
  9
$ANGBASE
 50
0.0
  9
$ANGDIR
 70
     0
  9
$PDMODE
 70
     0
  9
$PDSIZE
 40
0.0
  9
$PLINEWID
 40
0.0
  9
$COORDS
 70
     0
  9
$SPLFRAME
 70
     0
  9
$SPLINETYPE
 70
     6
  9
$SPLINESEGS
 70
     8
  9
$ATTDIA
 70
     0
  9
$ATTREQ
 70
     1
  9
$HANDLING
 70
     1
  9
$HANDSEED
  5
2EB
  9
$SURFTAB1
 70
     6
  9
$SURFTAB2
 70
     6
  9
$SURFTYPE
 70
     6
  9
$SURFU
 70
     6
  9
$SURFV
 70
     6
  9
$UCSNAME
  2

  9
$UCSORG
 10
0.0
 20
0.0
 30
0.0
  9
$UCSXDIR
 10
1.0
 20
0.0
 30
0.0
  9
$UCSYDIR
 10
0.0
 20
1.0
 30
0.0
  9
$PUCSNAME
  2

  9
$PUCSORG
 10
0.0
 20
0.0
 30
0.0
  9
$PUCSXDIR
 10
1.0
 20
0.0
 30
0.0
  9
$PUCSYDIR
 10
0.0
 20
1.0
 30
0.0
  9
$USERI1
 70
     0
  9
$USERI2
 70
     0
  9
$USERI3
 70
     0
  9
$USERI4
 70
     0
  9
$USERI5
 70
     0
  9
$USERR1
 40
0.0
  9
$USERR2
 40
0.0
  9
$USERR3
 40
0.0
  9
$USERR4
 40
0.0
  9
$USERR5
 40
0.0
  9
$WORLDVIEW
 70
     1
  9
$SHADEDGE
 70
     3
  9
$SHADEDIF
 70
    70
  9
$TILEMODE
 70
     1
  9
$MAXACTVP
 70
    16
  9
$PINSBASE
 10
0.0
 20
0.0
 30
0.0
  9
$PLIMCHECK
 70
     0
  9
$PEXTMIN
 10
1.000000E+20
 20
1.000000E+20
 30
1.000000E+20
  9
$PEXTMAX
 10
-1.000000E+20
 20
-1.000000E+20
 30
-1.000000E+20
  9
$PLIMMIN
 10
0.0
 20
0.0
  9
$PLIMMAX
 10
12.0
 20
9.0
  9
$UNITMODE
 70
     0
  9
$VISRETAIN
 70
     0
  9
$PLINEGEN
 70
     0
  9
$PSLTSCALE
 70
     0
  9
$TREEDEPTH
 70
  3020
  9
$PICKSTYLE
 70
     1
  9
$CMLSTYLE
  2
STANDARD
  9
$CMLJUST
 70
     0
  9
$CMLSCALE
 40
1.0
  9
$SAVEIMAGES
 70
     0
  0
ENDSEC
  0
SECTION
  2
CLASSES
  0
CLASS
  1
LWPOLYLINE
  2
AcDbPolyline
  3
"AutoCAD"
 90
        0
280
     0
281
     1
  0
CLASS
  1
IMAGE
  2
AcDbRasterImage
  3
ISM
 90
      127
280
     0
281
     1
  0
CLASS
  1
OLE2FRAME
  2
AcDbOle2Frame
  3
""
 90
        0
280
     0
281
     1
  0
CLASS
  1
HATCH
  2
AcDbHatch
  3
"ACAD_SEDONA"
 90
        0
280
     0
281
     1
  0
CLASS
  1
DICTIONARYVAR
  2
AcDbDictionaryVar
  3
"AutoCAD"
 90
        0
280
     0
281
     0
  0
CLASS
  1
RASTERVARIABLES
  2
AcDbRasterVariables
  3
ISM
 90
        0
280
     0
281
     0
  0
CLASS
  1
IMAGEDEF
  2
AcDbRasterImageDef
  3
ISM
 90
        0
280
     0
281
     0
  0
CLASS
  1
IMAGEDEF_REACTOR
  2
AcDbRasterImageDefReactor
  3
ISM
 90
        1
280
     0
281
     0
  0
CLASS
  1
IDBUFFER
  2
AcDbIdBuffer
  3
"Acad"
 90
        0
280
     0
281
     0
  0
CLASS
  1
SPATIAL_FILTER
  2
AcDbSpatialFilter
  3
"Acad"
 90
        0
280
     0
281
     0
  0
CLASS
  1
XRECORD
  2
AcDbXrecord
  3
"<Built In>"
 90
        0
280
     0
281
     0
  0
CLASS
  1
SORTENTSTABLE
  2
AcDbSortentsTable
  3
"AutoCAD"
 90
        0
280
     0
281
     0
  0
CLASS
  1
LAYER_INDEX
  2
AcDbLayerIndex
  3
"Acad"
 90
        0
280
     0
281
     0
  0
CLASS
  1
SPATIAL_INDEX
  2
AcDbSpatialIndex
  3
"Acad"
 90
        0
280
     0
281
     0
  0
CLASS
  1
OBJECT_PTR
  2
CAseDLPNTableRecord
  3
"ASE-LPNTableRecord"
 90
        1
280
     0
281
     0
  0
ENDSEC
  0
SECTION
  2
TABLES
  0
TABLE
  2
VPORT
  5
7
100
AcDbSymbolTable
 70
     2
  0
VPORT
  5
15
100
AcDbSymbolTableRecord
100
AcDbViewportTableRecord
  2
*ACTIVE
 70
     0
 10
0.0
 20
0.0
 11
1.0
 21
1.0
 12
6.591288
 22
4.579184
 13
0.0
 23
0.0
 14
1.0
 24
1.0
 15
0.0
 25
0.0
 16
0.0
 26
0.0
 36
1.0
 17
0.0
 27
0.0
 37
0.0
 40
9.158369
 41
0.688564
 42
50.0
 43
0.0
 44
0.0
 50
0.0
 51
0.0
 71
     0
 72
   100
 73
     1
 74
     1
 75
     0
 76
     0
 77
     0
 78
     0
  0
VPORT
  5
2B
100
AcDbSymbolTableRecord
100
AcDbViewportTableRecord
  2
DCADVPORT
 70
     0
 10
11.117161
 20
9.922201
 11
19.45032
 21
15.038562
 12
6.21
 22
9.02
 13
0.0
 23
0.0
 14
1.0
 24
1.0
 15
0.0
 25
0.0
 16
0.0
 26
0.0
 36
1.0
 17
0.0
 27
0.0
 37
0.0
 40
18.04
 41
0.688564
 42
50.0
 43
1.0
 44
1.0
 50
0.0
 51
0.0
 71
     0
 72
   100
 73
     1
 74
     1
 75
     0
 76
     0
 77
     0
 78
     0
  0
ENDTAB
  0
TABLE
  2
LTYPE
  5
4
100
AcDbSymbolTable
 70
    15
  0
LTYPE
  5
11
100
AcDbSymbolTableRecord
100
AcDbLinetypeTableRecord
  2
BYBLOCK
 70
     0
  3

 72
    65
 73
     0
 40
0.0
  0
LTYPE
  5
12
100
AcDbSymbolTableRecord
100
AcDbLinetypeTableRecord
  2
BYLAYER
 70
     0
  3

 72
    65
 73
     0
 40
0.0
  0
LTYPE
  5
13
100
AcDbSymbolTableRecord
100
AcDbLinetypeTableRecord
  2
CONTINUOUS
 70
     0
  3
Solid line
 72
    65
 73
     0
 40
0.0
  0
LTYPE
  5
1E
100
AcDbSymbolTableRecord
100
AcDbLinetypeTableRecord
  2
CONTINUOUS
 70
     0
  3
Solid line
 72
    65
 73
     0
 40
0.0
  0
LTYPE
  5
1F
100
AcDbSymbolTableRecord
100
AcDbLinetypeTableRecord
  2
BORDER
 70
    64
  3
__ __ . __ __ . __ __ . __ __ . __ __ . __ __ .
 72
    65
 73
     6
 40
1.75
 49
0.5
 74
     0
 49
-0.25
 74
     0
 49
0.5
 74
     0
 49
-0.25
 74
     0
 49
0.0
 74
     0
 49
-0.25
 74
     0
  0
LTYPE
  5
20
100
AcDbSymbolTableRecord
100
AcDbLinetypeTableRecord
  2
BORDER2
 70
    64
  3
__.__.__.__.__.__.__.__.__.__.__.__.__.__.__.__
 72
    65
 73
     6
 40
0.875
 49
0.25
 74
     0
 49
-0.125
 74
     0
 49
0.25
 74
     0
 49
-0.125
 74
     0
 49
0.0
 74
     0
 49
-0.125
 74
     0
  0
LTYPE
  5
21
100
AcDbSymbolTableRecord
100
AcDbLinetypeTableRecord
  2
CENTER
 70
    64
  3
____ _ ____ _ ____ _ ____ _ ____ _ ____ _ ____ 
 72
    65
 73
     4
 40
2.0
 49
1.25
 74
     0
 49
-0.25
 74
     0
 49
0.25
 74
     0
 49
-0.25
 74
     0
  0
LTYPE
  5
22
100
AcDbSymbolTableRecord
100
AcDbLinetypeTableRecord
  2
DASHDOT
 70
    64
  3
__ . __ . __ . __ . __ . __ . __ . __ . __ . __
 72
    65
 73
     4
 40
1.0
 49
0.5
 74
     0
 49
-0.25
 74
     0
 49
0.0
 74
     0
 49
-0.25
 74
     0
  0
LTYPE
  5
23
100
AcDbSymbolTableRecord
100
AcDbLinetypeTableRecord
  2
DASHDOT2
 70
    64
  3
_._._._._._._._._._._._._._._._._._._._._._._._
 72
    65
 73
     4
 40
0.5
 49
0.25
 74
     0
 49
-0.125
 74
     0
 49
0.0
 74
     0
 49
-0.125
 74
     0
  0
LTYPE
  5
24
100
AcDbSymbolTableRecord
100
AcDbLinetypeTableRecord
  2
DASHED
 70
    64
  3
__ __ __ __ __ __ __ __ __ __ __ __ __ __ __ __
 72
    65
 73
     2
 40
0.75
 49
0.5
 74
     0
 49
-0.25
 74
     0
  0
LTYPE
  5
25
100
AcDbSymbolTableRecord
100
AcDbLinetypeTableRecord
  2
DIVIDE
 70
    64
  3
____ . . ____ . . ____ . . ____ . . ____ . . __
 72
    65
 73
     6
 40
1.25
 49
0.5
 74
     0
 49
-0.25
 74
     0
 49
0.0
 74
     0
 49
-0.25
 74
     0
 49
0.0
 74
     0
 49
-0.25
 74
     0
  0
LTYPE
  5
26
100
AcDbSymbolTableRecord
100
AcDbLinetypeTableRecord
  2
DIVIDE2
 70
    64
  3
__..__..__..__..__..__..__..__..__..__..__..__.
 72
    65
 73
     6
 40
0.625
 49
0.25
 74
     0
 49
-0.125
 74
     0
 49
0.0
 74
     0
 49
-0.125
 74
     0
 49
0.0
 74
     0
 49
-0.125
 74
     0
  0
LTYPE
  5
27
100
AcDbSymbolTableRecord
100
AcDbLinetypeTableRecord
  2
DOT
 70
    64
  3
. . . . . . . . . . . . . . . . . . . . . . . .
 72
    65
 73
     2
 40
0.25
 49
0.0
 74
     0
 49
-0.25
 74
     0
  0
LTYPE
  5
28
100
AcDbSymbolTableRecord
100
AcDbLinetypeTableRecord
  2
HIDDEN
 70
    64
  3
__ __ __ __ __ __ __ __ __ __ __ __ __ __ __ __
 72
    65
 73
     2
 40
0.375
 49
0.25
 74
     0
 49
-0.125
 74
     0
  0
LTYPE
  5
29
100
AcDbSymbolTableRecord
100
AcDbLinetypeTableRecord
  2
PHANTOM
 70
    64
  3
______  __  __  ______  __  __  ______  __  __ 
 72
    65
 73
     6
 40
2.5
 49
1.25
 74
     0
 49
-0.25
 74
     0
 49
0.25
 74
     0
 49
-0.25
 74
     0
 49
0.25
 74
     0
 49
-0.25
 74
     0
  0
ENDTAB
  0
TABLE
  2
LAYER
  5
2
100
AcDbSymbolTable
 70
     2
  0
LAYER
  5
14
100
AcDbSymbolTableRecord
100
AcDbLayerTableRecord
  2
0
 70
     0
 62
     7
  6
CONTINUOUS
  0
LAYER
  5
2A
100
AcDbSymbolTableRecord
100
AcDbLayerTableRecord
  2
1
 70
     0
 62
   250
  6
CONTINUOUS
  0
ENDTAB
  0
TABLE
  2
STYLE
  5
3
100
AcDbSymbolTable
 70
     2
  0
STYLE
  5
17
100
AcDbSymbolTableRecord
100
AcDbTextStyleTableRecord
  2
STANDARD
 70
     0
 40
0.0
 41
1.0
 50
0.0
 71
     0
 42
0.0
  3
txt
  4

  0
STYLE
  5
1D
100
AcDbSymbolTableRecord
100
AcDbTextStyleTableRecord
  2
BIGFONT
 70
    64
 40
3.0
 41
1.0
 50
0.0
 71
     0
 42
0.2
  3

  4
BIGFONT
  0
ENDTAB
  0
TABLE
  2
VIEW
  5
5
100
AcDbSymbolTable
 70
     0
  0
ENDTAB
  0
TABLE
  2
UCS
  5
6
100
AcDbSymbolTable
 70
     0
  0
ENDTAB
  0
TABLE
  2
APPID
  5
8
100
AcDbSymbolTable
 70
     1
  0
APPID
  5
16
100
AcDbSymbolTableRecord
100
AcDbRegAppTableRecord
  2
ACAD
 70
     0
  0
ENDTAB
  0
TABLE
  2
DIMSTYLE
  5
9
100
AcDbSymbolTable
 70
     1
  0
DIMSTYLE
105
18
100
AcDbSymbolTableRecord
100
AcDbDimStyleTableRecord
  2
STANDARD
 70
     0
  3

  4

  5

  6

  7

 40
1.0
 41
0.18
 42
0.0625
 43
0.38
 44
0.18
 45
0.0
 46
0.0
 47
0.0
 48
0.0
140
0.18
141
0.09
142
0.0
143
25.4
144
1.0
145
0.0
146
1.0
147
0.09
 71
     0
 72
     0
 73
     1
 74
     1
 75
     0
 76
     0
 77
     0
 78
     0
170
     0
171
     2
172
     0
173
     0
174
     0
175
     0
176
     0
177
     0
178
     0
270
     2
271
     4
272
     4
273
     2
274
     2
340
17
275
     0
280
     0
281
     0
282
     0
283
     1
284
     0
285
     0
286
     0
287
     0
288
     0
  0
ENDTAB
  0
TABLE
  2
BLOCK_RECORD
  5
1
100
AcDbSymbolTable
 70
     0
  0
BLOCK_RECORD
  5
A
100
AcDbSymbolTableRecord
100
AcDbBlockTableRecord
  2
*MODEL_SPACE
  0
BLOCK_RECORD
  5
B
100
AcDbSymbolTableRecord
100
AcDbBlockTableRecord
  2
*PAPER_SPACE
  0
ENDTAB
  0
ENDSEC
  0
SECTION
  2
BLOCKS
  0
BLOCK
  5
D
100
AcDbEntity
  8
0
100
AcDbBlockBegin
  2
*MODEL_SPACE
 70
     0
 10
0.0
 20
0.0
 30
0.0
  3
*MODEL_SPACE
  1

  0
ENDBLK
  5
E
100
AcDbEntity
  8
0
100
AcDbBlockEnd
  0
BLOCK
  5
F
100
AcDbEntity
 67
     1
  8
0
100
AcDbBlockBegin
  2
*PAPER_SPACE
 70
     0
 10
0.0
 20
0.0
 30
0.0
  3
*PAPER_SPACE
  1

  0
ENDBLK
  5
10
100
AcDbEntity
 67
     1
  8
0
100
AcDbBlockEnd
  0
ENDSEC
  0
SECTION
  2
ENTITIES
  0
POLYLINE
  5
2C
100
AcDbEntity
  8
1
  6
CONTINUOUS
 62
   250
 48
0.805031
100
AcDb2dPolyline
 66
     1
 10
0.0
 20
0.0
 30
0.0
 70
   128
  0
VERTEX
  5
2D
100
AcDbEntity
  8
1
  6
CONTINUOUS
 62
   250
 48
0.805031
100
AcDbVertex
100
AcDb2dVertex
 10
12.05032
 20
14.559761
 30
0.0
 40
0.0
 41
0.0
  0
VERTEX
  5
2E
100
AcDbEntity
  8
1
  6
CONTINUOUS
 62
   250
 48
0.805031
100
AcDbVertex
100
AcDb2dVertex
 10
16.90032
 20
14.559761
 30
0.0
 40
0.0
 41
0.0
  0
VERTEX
  5
2F
100
AcDbEntity
  8
1
  6
CONTINUOUS
 62
   250
 48
0.805031
100
AcDbVertex
100
AcDb2dVertex
 10
16.90032
 20
13.209761
 30
0.0
 40
0.0
 41
0.0
  0
SEQEND
  5
30
100
AcDbEntity
  8
0
  0
POLYLINE
  5
31
100
AcDbEntity
  8
1
  6
CONTINUOUS
 62
   250
 48
0.805031
100
AcDb2dPolyline
 66
     1
 10
0.0
 20
0.0
 30
0.0
 70
   128
  0
VERTEX
  5
32
100
AcDbEntity
  8
1
  6
CONTINUOUS
 62
   250
 48
0.805031
100
AcDbVertex
100
AcDb2dVertex
 10
12.05032
 20
14.559761
 30
0.0
 40
0.0
 41
0.0
  0
VERTEX
  5
33
100
AcDbEntity
  8
1
  6
CONTINUOUS
 62
   250
 48
0.805031
100
AcDbVertex
100
AcDb2dVertex
 10
12.05032
 20
13.259761
 30
0.0
 40
0.0
 41
0.0
  0
SEQEND
  5
34
100
AcDbEntity
  8
0
  0
POLYLINE
  5
35
100
AcDbEntity
  8
1
  6
CONTINUOUS
 62
   250
 48
0.805031
100
AcDb2dPolyline
 66
     1
 10
0.0
 20
0.0
 30
0.0
 70
   128
  0
VERTEX
  5
36
100
AcDbEntity
  8
1
  6
CONTINUOUS
 62
   250
 48
0.805031
100
AcDbVertex
100
AcDb2dVertex
 10
13.15032
 20
10.82976
 30
0.0
 40
0.0
 41
0.0
  0
VERTEX
  5
37
100
AcDbEntity
  8
1
  6
CONTINUOUS
 62
   250
 48
0.805031
100
AcDbVertex
100
AcDb2dVertex
 10
13.15032
 20
12.884759
 30
0.0
 40
0.0
 41
0.0
  0
SEQEND
  5
38
100
AcDbEntity
  8
0
  0
ARC
  5
39
100
AcDbEntity
  8
1
  6
CONTINUOUS
 62
   250
 48
0.805031
100
AcDbCircle
 10
-12.77532
 20
12.884759
 30
0.0
 40
0.375
210
0.0
220
0.0
230
-1.0
100
AcDbArc
 50
90.0
 51
180.0
  0
POLYLINE
  5
3A
100
AcDbEntity
  8
1
  6
CONTINUOUS
 62
   250
 48
0.805031
100
AcDb2dPolyline
 66
     1
 10
0.0
 20
0.0
 30
0.0
 70
   128
  0
VERTEX
  5
3B
100
AcDbEntity
  8
1
  6
CONTINUOUS
 62
   250
 48
0.805031
100
AcDbVertex
100
AcDb2dVertex
 10
12.77532
 20
13.259759
 30
0.0
 40
0.0
 41
0.0
  0
VERTEX
  5
3C
100
AcDbEntity
  8
1
  6
CONTINUOUS
 62
   250
 48
0.805031
100
AcDbVertex
100
AcDb2dVertex
 10
12.05032
 20
13.259759
 30
0.0
 40
0.0
 41
0.0
  0
SEQEND
  5
3D
100
AcDbEntity
  8
0
  0
POLYLINE
  5
3E
100
AcDbEntity
  8
1
  6
CONTINUOUS
 62
   250
 48
0.805031
100
AcDb2dPolyline
 66
     1
 10
0.0
 20
0.0
 30
0.0
 70
   128
  0
VERTEX
  5
3F
100
AcDbEntity
  8
1
  6
CONTINUOUS
 62
   250
 48
0.805031
100
AcDbVertex
100
AcDb2dVertex
 10
16.90032
 20
13.209761
 30
0.0
 40
0.0
 41
0.0
  0
VERTEX
  5
40
100
AcDbEntity
  8
1
  6
CONTINUOUS
 62
   250
 48
0.805031
100
AcDbVertex
100
AcDb2dVertex
 10
16.02532
 20
13.209761
 30
0.0
 40
0.0
 41
0.0
  0
SEQEND
  5
41
100
AcDbEntity
  8
0
  0
ARC
  5
42
100
AcDbEntity
  8
1
  6
CONTINUOUS
 62
   250
 48
0.805031
100
AcDbCircle
 10
-16.02532
 20
12.834761
 30
0.0
 40
0.375
210
0.0
220
0.0
230
-1.0
100
AcDbArc
 50
0.0
 51
90.0
  0
POLYLINE
  5
43
100
AcDbEntity
  8
1
  6
CONTINUOUS
 62
   250
 48
0.805031
100
AcDb2dPolyline
 66
     1
 10
0.0
 20
0.0
 30
0.0
 70
   128
  0
VERTEX
  5
44
100
AcDbEntity
  8
1
  6
CONTINUOUS
 62
   250
 48
0.805031
100
AcDbVertex
100
AcDb2dVertex
 10
15.65032
 20
12.834761
 30
0.0
 40
0.0
 41
0.0
  0
VERTEX
  5
45
100
AcDbEntity
  8
1
  6
CONTINUOUS
 62
   250
 48
0.805031
100
AcDbVertex
100
AcDb2dVertex
 10
15.65032
 20
10.82976
 30
0.0
 40
0.0
 41
0.0
  0
SEQEND
  5
46
100
AcDbEntity
  8
0
  0
ARC
  5
47
100
AcDbEntity
  8
1
  6
CONTINUOUS
 62
   250
 48
0.805031
100
AcDbCircle
 10
-14.82532
 20
12.884761
 30
0.0
 40
0.375
210
0.0
220
0.0
230
-1.0
100
AcDbArc
 50
90.0
 51
179.999765
  0
POLYLINE
  5
48
100
AcDbEntity
  8
1
  6
CONTINUOUS
 62
   250
 48
0.805031
100
AcDb2dPolyline
 66
     1
 10
0.0
 20
0.0
 30
0.0
 70
   128
  0
VERTEX
  5
49
100
AcDbEntity
  8
1
  6
CONTINUOUS
 62
   250
 48
0.805031
100
AcDbVertex
100
AcDb2dVertex
 10
15.20032
 20
12.884763
 30
0.0
 40
0.0
 41
0.0
  0
VERTEX
  5
4A
100
AcDbEntity
  8
1
  6
CONTINUOUS
 62
   250
 48
0.805031
100
AcDbVertex
100
AcDb2dVertex
 10
15.20032
 20
11.904759
 30
0.0
 40
0.0
 41
0.0
  0
SEQEND
  5
4B
100
AcDbEntity
  8
0
  0
ARC
  5
4C
100
AcDbEntity
  8
1
  6
CONTINUOUS
 62
   250
 48
0.805031
100
AcDbCircle
 10
-14.82532
 20
11.904759
 30
0.0
 40
0.374999
210
0.0
220
0.0
230
-1.0
100
AcDbArc
 50
180.0
 51
270.0
  0
POLYLINE
  5
4D
100
AcDbEntity
  8
1
  6
CONTINUOUS
 62
   250
 48
0.805031
100
AcDb2dPolyline
 66
     1
 10
0.0
 20
0.0
 30
0.0
 70
   128
  0
VERTEX
  5
4E
100
AcDbEntity
  8
1
  6
CONTINUOUS
 62
   250
 48
0.805031
100
AcDbVertex
100
AcDb2dVertex
 10
13.15032
 20
11.52976
 30
0.0
 40
0.0
 41
0.0
  0
VERTEX
  5
4F
100
AcDbEntity
  8
1
  6
CONTINUOUS
 62
   250
 48
0.805031
100
AcDbVertex
100
AcDb2dVertex
 10
13.15032
 20
11.52976
 30
0.0
 40
0.0
 41
0.0
  0
SEQEND
  5
50
100
AcDbEntity
  8
0
  0
POLYLINE
  5
51
100
AcDbEntity
  8
1
  6
CONTINUOUS
 62
   250
 48
0.805031
100
AcDb2dPolyline
 66
     1
 10
0.0
 20
0.0
 30
0.0
 70
   128
  0
VERTEX
  5
52
100
AcDbEntity
  8
1
  6
CONTINUOUS
 62
   250
 48
0.805031
100
AcDbVertex
100
AcDb2dVertex
 10
14.82532
 20
11.52976
 30
0.0
 40
0.0
 41
0.0
  0
VERTEX
  5
53
100
AcDbEntity
  8
1
  6
CONTINUOUS
 62
   250
 48
0.805031
100
AcDbVertex
100
AcDb2dVertex
 10
13.94532
 20
11.52976
 30
0.0
 40
0.0
 41
0.0
  0
SEQEND
  5
54
100
AcDbEntity
  8
0
  0
ARC
  5
55
100
AcDbEntity
  8
1
  6
CONTINUOUS
 62
   250
 48
0.805031
100
AcDbCircle
 10
-13.94532
 20
11.90476
 30
0.0
 40
0.375
210
0.0
220
0.0
230
-1.0
100
AcDbArc
 50
270.0
 51
360.0
  0
POLYLINE
  5
56
100
AcDbEntity
  8
1
  6
CONTINUOUS
 62
   250
 48
0.805031
100
AcDb2dPolyline
 66
     1
 10
0.0
 20
0.0
 30
0.0
 70
   128
  0
VERTEX
  5
57
100
AcDbEntity
  8
1
  6
CONTINUOUS
 62
   250
 48
0.805031
100
AcDbVertex
100
AcDb2dVertex
 10
13.57032
 20
11.90476
 30
0.0
 40
0.0
 41
0.0
  0
VERTEX
  5
58
100
AcDbEntity
  8
1
  6
CONTINUOUS
 62
   250
 48
0.805031
100
AcDbVertex
100
AcDb2dVertex
 10
13.57032
 20
12.884759
 30
0.0
 40
0.0
 41
0.0
  0
SEQEND
  5
59
100
AcDbEntity
  8
0
  0
ARC
  5
5A
100
AcDbEntity
  8
1
  6
CONTINUOUS
 62
   250
 48
0.805031
100
AcDbCircle
 10
-13.94532
 20
12.884759
 30
0.0
 40
0.375
210
0.0
220
0.0
230
-1.0
100
AcDbArc
 50
0.0
 51
90.0
  0
POLYLINE
  5
5B
100
AcDbEntity
  8
1
  6
CONTINUOUS
 62
   250
 48
0.805031
100
AcDb2dPolyline
 66
     1
 10
0.0
 20
0.0
 30
0.0
 70
   128
  0
VERTEX
  5
5C
100
AcDbEntity
  8
1
  6
CONTINUOUS
 62
   250
 48
0.805031
100
AcDbVertex
100
AcDb2dVertex
 10
13.94532
 20
13.259759
 30
0.0
 40
0.0
 41
0.0
  0
VERTEX
  5
5D
100
AcDbEntity
  8
1
  6
CONTINUOUS
 62
   250
 48
0.805031
100
AcDbVertex
100
AcDb2dVertex
 10
14.82532
 20
13.259759
 30
0.0
 40
0.0
 41
0.0
  0
SEQEND
  5
5E
100
AcDbEntity
  8
0
  0
POLYLINE
  5
5F
100
AcDbEntity
  8
1
  6
CONTINUOUS
 62
   250
 48
0.805031
100
AcDb2dPolyline
 66
     1
 10
0.0
 20
0.0
 30
0.0
 70
   128
  0
VERTEX
  5
60
100
AcDbEntity
  8
1
  6
CONTINUOUS
 62
   250
 48
0.805031
100
AcDbVertex
100
AcDb2dVertex
 10
12.05032
 20
14.31566
 30
0.0
 40
0.0
 41
0.0
  0
VERTEX
  5
61
100
AcDbEntity
  8
1
  6
CONTINUOUS
 62
   250
 48
0.805031
100
AcDbVertex
100
AcDb2dVertex
 10
12.05032
 20
14.31566
 30
0.0
 40
0.0
 41
0.0
  0
SEQEND
  5
62
100
AcDbEntity
  8
0
  0
POLYLINE
  5
63
100
AcDbEntity
  8
1
  6
HIDDEN
 62
   250
 48
0.25
100
AcDb2dPolyline
 66
     1
 10
0.0
 20
0.0
 30
0.0
 70
   128
  0
VERTEX
  5
64
100
AcDbEntity
  8
1
  6
HIDDEN
 62
   250
 48
0.25
100
AcDbVertex
100
AcDb2dVertex
 10
16.90032
 20
14.31566
 30
0.0
 40
0.0
 41
0.0
  0
VERTEX
  5
65
100
AcDbEntity
  8
1
  6
HIDDEN
 62
   250
 48
0.25
100
AcDbVertex
100
AcDb2dVertex
 10
12.05032
 20
14.31566
 30
0.0
 40
0.0
 41
0.0
  0
SEQEND
  5
66
100
AcDbEntity
  8
0
  0
POLYLINE
  5
67
100
AcDbEntity
  8
1
  6
CONTINUOUS
 62
   250
 48
0.805031
100
AcDb2dPolyline
 66
     1
 10
0.0
 20
0.0
 30
0.0
 70
   128
  0
VERTEX
  5
68
100
AcDbEntity
  8
1
  6
CONTINUOUS
 62
   250
 48
0.805031
100
AcDbVertex
100
AcDb2dVertex
 10
12.05032
 20
13.44956
 30
0.0
 40
0.0
 41
0.0
  0
VERTEX
  5
69
100
AcDbEntity
  8
1
  6
CONTINUOUS
 62
   250
 48
0.805031
100
AcDbVertex
100
AcDb2dVertex
 10
12.05032
 20
13.44956
 30
0.0
 40
0.0
 41
0.0
  0
SEQEND
  5
6A
100
AcDbEntity
  8
0
  0
POLYLINE
  5
6B
100
AcDbEntity
  8
1
  6
HIDDEN
 62
   250
 48
0.25
100
AcDb2dPolyline
 66
     1
 10
0.0
 20
0.0
 30
0.0
 70
   128
  0
VERTEX
  5
6C
100
AcDbEntity
  8
1
  6
HIDDEN
 62
   250
 48
0.25
100
AcDbVertex
100
AcDb2dVertex
 10
16.90032
 20
13.44956
 30
0.0
 40
0.0
 41
0.0
  0
VERTEX
  5
6D
100
AcDbEntity
  8
1
  6
HIDDEN
 62
   250
 48
0.25
100
AcDbVertex
100
AcDb2dVertex
 10
12.05032
 20
13.44956
 30
0.0
 40
0.0
 41
0.0
  0
SEQEND
  5
6E
100
AcDbEntity
  8
0
  0
POLYLINE
  5
6F
100
AcDbEntity
  8
1
  6
CONTINUOUS
 62
   250
 48
0.805031
100
AcDb2dPolyline
 66
     1
 10
0.0
 20
0.0
 30
0.0
 70
   128
  0
VERTEX
  5
70
100
AcDbEntity
  8
1
  6
CONTINUOUS
 62
   250
 48
0.805031
100
AcDbVertex
100
AcDb2dVertex
 10
14.09032
 20
10.82976
 30
0.0
 40
0.0
 41
0.0
  0
VERTEX
  5
71
100
AcDbEntity
  8
1
  6
CONTINUOUS
 62
   250
 48
0.805031
100
AcDbVertex
100
AcDb2dVertex
 10
14.09032
 20
11.189759
 30
0.0
 40
0.0
 41
0.0
  0
VERTEX
  5
72
100
AcDbEntity
  8
1
  6
CONTINUOUS
 62
   250
 48
0.805031
100
AcDbVertex
100
AcDb2dVertex
 10
14.735319
 20
11.189759
 30
0.0
 40
0.0
 41
0.0
  0
SEQEND
  5
73
100
AcDbEntity
  8
0
  0
POLYLINE
  5
74
100
AcDbEntity
  8
1
  6
CONTINUOUS
 62
   250
 48
0.805031
100
AcDb2dPolyline
 66
     1
 10
0.0
 20
0.0
 30
0.0
 70
   128
  0
VERTEX
  5
75
100
AcDbEntity
  8
1
  6
CONTINUOUS
 62
   250
 48
0.805031
100
AcDbVertex
100
AcDb2dVertex
 10
14.735319
 20
11.189759
 30
0.0
 40
0.0
 41
0.0
  0
VERTEX
  5
76
100
AcDbEntity
  8
1
  6
CONTINUOUS
 62
   250
 48
0.805031
100
AcDbVertex
100
AcDb2dVertex
 10
14.735319
 20
10.82976
 30
0.0
 40
0.0
 41
0.0
  0
SEQEND
  5
77
100
AcDbEntity
  8
0
  0
POLYLINE
  5
78
100
AcDbEntity
  8
1
  6
CONTINUOUS
 62
   250
 48
0.805031
100
AcDb2dPolyline
 66
     1
 10
0.0
 20
0.0
 30
0.0
 70
   128
  0
VERTEX
  5
79
100
AcDbEntity
  8
1
  6
CONTINUOUS
 62
   250
 48
0.805031
100
AcDbVertex
100
AcDb2dVertex
 10
14.09032
 20
10.82976
 30
0.0
 40
0.0
 41
0.0
  0
VERTEX
  5
7A
100
AcDbEntity
  8
1
  6
CONTINUOUS
 62
   250
 48
0.805031
100
AcDbVertex
100
AcDb2dVertex
 10
13.15032
 20
10.82976
 30
0.0
 40
0.0
 41
0.0
  0
SEQEND
  5
7B
100
AcDbEntity
  8
0
  0
POLYLINE
  5
7C
100
AcDbEntity
  8
1
  6
CONTINUOUS
 62
   250
 48
0.805031
100
AcDb2dPolyline
 66
     1
 10
0.0
 20
0.0
 30
0.0
 70
   128
  0
VERTEX
  5
7D
100
AcDbEntity
  8
1
  6
CONTINUOUS
 62
   250
 48
0.805031
100
AcDbVertex
100
AcDb2dVertex
 10
14.735319
 20
10.82976
 30
0.0
 40
0.0
 41
0.0
  0
VERTEX
  5
7E
100
AcDbEntity
  8
1
  6
CONTINUOUS
 62
   250
 48
0.805031
100
AcDbVertex
100
AcDb2dVertex
 10
15.65032
 20
10.82976
 30
0.0
 40
0.0
 41
0.0
  0
SEQEND
  5
7F
100
AcDbEntity
  8
0
  0
POLYLINE
  5
80
100
AcDbEntity
  8
1
  6
HIDDEN
 62
   250
 48
0.25
100
AcDb2dPolyline
 66
     1
 10
0.0
 20
0.0
 30
0.0
 70
   128
  0
VERTEX
  5
81
100
AcDbEntity
  8
1
  6
HIDDEN
 62
   250
 48
0.25
100
AcDbVertex
100
AcDb2dVertex
 10
14.156818
 20
11.189759
 30
0.0
 40
0.0
 41
0.0
  0
VERTEX
  5
82
100
AcDbEntity
  8
1
  6
HIDDEN
 62
   250
 48
0.25
100
AcDbVertex
100
AcDb2dVertex
 10
14.156818
 20
11.52976
 30
0.0
 40
0.0
 41
0.0
  0
SEQEND
  5
83
100
AcDbEntity
  8
0
  0
POLYLINE
  5
84
100
AcDbEntity
  8
1
  6
HIDDEN
 62
   250
 48
0.25
100
AcDb2dPolyline
 66
     1
 10
0.0
 20
0.0
 30
0.0
 70
   128
  0
VERTEX
  5
85
100
AcDbEntity
  8
1
  6
HIDDEN
 62
   250
 48
0.25
100
AcDbVertex
100
AcDb2dVertex
 10
14.668819
 20
11.189759
 30
0.0
 40
0.0
 41
0.0
  0
VERTEX
  5
86
100
AcDbEntity
  8
1
  6
HIDDEN
 62
   250
 48
0.25
100
AcDbVertex
100
AcDb2dVertex
 10
14.668819
 20
11.52976
 30
0.0
 40
0.0
 41
0.0
  0
SEQEND
  5
87
100
AcDbEntity
  8
0
  0
POLYLINE
  5
88
100
AcDbEntity
  8
1
  6
CONTINUOUS
 62
   250
 48
0.805031
100
AcDb2dPolyline
 66
     1
 10
0.0
 20
0.0
 30
0.0
 70
   128
  0
VERTEX
  5
89
100
AcDbEntity
  8
1
  6
CONTINUOUS
 62
   250
 48
0.805031
100
AcDbVertex
100
AcDb2dVertex
 10
19.40032
 20
14.559761
 30
0.0
 40
0.0
 41
0.0
  0
VERTEX
  5
8A
100
AcDbEntity
  8
1
  6
CONTINUOUS
 62
   250
 48
0.805031
100
AcDbVertex
100
AcDb2dVertex
 10
19.40032
 20
14.559761
 30
0.0
 40
0.0
 41
0.0
  0
SEQEND
  5
8B
100
AcDbEntity
  8
0
  0
POLYLINE
  5
8C
100
AcDbEntity
  8
1
  6
CONTINUOUS
 62
   250
 48
0.805031
100
AcDb2dPolyline
 66
     1
 10
0.0
 20
0.0
 30
0.0
 70
   128
  0
VERTEX
  5
8D
100
AcDbEntity
  8
1
  6
CONTINUOUS
 62
   250
 48
0.805031
100
AcDbVertex
100
AcDb2dVertex
 10
19.40032
 20
14.559761
 30
0.0
 40
0.0
 41
0.0
  0
VERTEX
  5
8E
100
AcDbEntity
  8
1
  6
CONTINUOUS
 62
   250
 48
0.805031
100
AcDbVertex
100
AcDb2dVertex
 10
19.40032
 20
13.259761
 30
0.0
 40
0.0
 41
0.0
  0
SEQEND
  5
8F
100
AcDbEntity
  8
0
  0
POLYLINE
  5
90
100
AcDbEntity
  8
1
  6
CONTINUOUS
 62
   250
 48
0.805031
100
AcDb2dPolyline
 66
     1
 10
0.0
 20
0.0
 30
0.0
 70
   128
  0
VERTEX
  5
91
100
AcDbEntity
  8
1
  6
CONTINUOUS
 62
   250
 48
0.805031
100
AcDbVertex
100
AcDb2dVertex
 10
19.40032
 20
14.559761
 30
0.0
 40
0.0
 41
0.0
  0
VERTEX
  5
92
100
AcDbEntity
  8
1
  6
CONTINUOUS
 62
   250
 48
0.805031
100
AcDbVertex
100
AcDb2dVertex
 10
17.90032
 20
14.559761
 30
0.0
 40
0.0
 41
0.0
  0
SEQEND
  5
93
100
AcDbEntity
  8
0
  0
POLYLINE
  5
94
100
AcDbEntity
  8
1
  6
CONTINUOUS
 62
   250
 48
0.805031
100
AcDb2dPolyline
 66
     1
 10
0.0
 20
0.0
 30
0.0
 70
   128
  0
VERTEX
  5
95
100
AcDbEntity
  8
1
  6
CONTINUOUS
 62
   250
 48
0.805031
100
AcDbVertex
100
AcDb2dVertex
 10
17.90032
 20
14.559761
 30
0.0
 40
0.0
 41
0.0
  0
VERTEX
  5
96
100
AcDbEntity
  8
1
  6
CONTINUOUS
 62
   250
 48
0.805031
100
AcDbVertex
100
AcDb2dVertex
 10
17.90032
 20
13.259761
 30
0.0
 40
0.0
 41
0.0
  0
VERTEX
  5
97
100
AcDbEntity
  8
1
  6
CONTINUOUS
 62
   250
 48
0.805031
100
AcDbVertex
100
AcDb2dVertex
 10
19.40032
 20
13.259761
 30
0.0
 40
0.0
 41
0.0
  0
SEQEND
  5
98
100
AcDbEntity
  8
0
  0
CIRCLE
  5
99
100
AcDbEntity
  8
1
  6
CONTINUOUS
 62
   250
 48
0.805031
100
AcDbCircle
 10
-18.715269
 20
13.88261
 30
0.0
 40
0.433099
210
0.0
220
0.0
230
-1.0
  0
POLYLINE
  5
9A
100
AcDbEntity
  8
1
  6
CONTINUOUS
 62
   250
 48
0.805031
100
AcDb2dPolyline
 66
     1
 10
0.0
 20
0.0
 30
0.0
 70
   128
  0
VERTEX
  5
9B
100
AcDbEntity
  8
1
  6
CONTINUOUS
 62
   250
 48
0.805031
100
AcDbVertex
100
AcDb2dVertex
 10
19.40032
 20
10.82976
 30
0.0
 40
0.0
 41
0.0
  0
VERTEX
  5
9C
100
AcDbEntity
  8
1
  6
CONTINUOUS
 62
   250
 48
0.805031
100
AcDbVertex
100
AcDb2dVertex
 10
17.67032
 20
10.82976
 30
0.0
 40
0.0
 41
0.0
  0
SEQEND
  5
9D
100
AcDbEntity
  8
0
  0
POLYLINE
  5
9E
100
AcDbEntity
  8
1
  6
HIDDEN
 62
   250
 48
0.25
100
AcDb2dPolyline
 66
     1
 10
0.0
 20
0.0
 30
0.0
 70
   128
  0
VERTEX
  5
9F
100
AcDbEntity
  8
1
  6
HIDDEN
 62
   250
 48
0.25
100
AcDbVertex
100
AcDb2dVertex
 10
17.67032
 20
11.18976
 30
0.0
 40
0.0
 41
0.0
  0
VERTEX
  5
A0
100
AcDbEntity
  8
1
  6
HIDDEN
 62
   250
 48
0.25
100
AcDbVertex
100
AcDb2dVertex
 10
19.40032
 20
11.18976
 30
0.0
 40
0.0
 41
0.0
  0
SEQEND
  5
A1
100
AcDbEntity
  8
0
  0
POLYLINE
  5
A2
100
AcDbEntity
  8
1
  6
CONTINUOUS
 62
   250
 48
0.805031
100
AcDb2dPolyline
 66
     1
 10
0.0
 20
0.0
 30
0.0
 70
   128
  0
VERTEX
  5
A3
100
AcDbEntity
  8
1
  6
CONTINUOUS
 62
   250
 48
0.805031
100
AcDbVertex
100
AcDb2dVertex
 10
17.90032
 20
13.259761
 30
0.0
 40
0.0
 41
0.0
  0
VERTEX
  5
A4
100
AcDbEntity
  8
1
  6
CONTINUOUS
 62
   250
 48
0.805031
100
AcDbVertex
100
AcDb2dVertex
 10
17.676709
 20
12.063928
 30
0.0
 40
0.0
 41
0.0
  0
SEQEND
  5
A5
100
AcDbEntity
  8
0
  0
ARC
  5
A6
100
AcDbEntity
  8
1
  6
CONTINUOUS
 62
   250
 48
0.805031
100
AcDbCircle
 10
-18.04532
 20
11.995
 30
0.0
 40
0.375
210
0.0
220
0.0
230
-1.0
100
AcDbArc
 50
0.0
 51
10.591567
  0
POLYLINE
  5
A7
100
AcDbEntity
  8
1
  6
CONTINUOUS
 62
   250
 48
0.805031
100
AcDb2dPolyline
 66
     1
 10
0.0
 20
0.0
 30
0.0
 70
   128
  0
VERTEX
  5
A8
100
AcDbEntity
  8
1
  6
CONTINUOUS
 62
   250
 48
0.805031
100
AcDbVertex
100
AcDb2dVertex
 10
17.67032
 20
11.995
 30
0.0
 40
0.0
 41
0.0
  0
VERTEX
  5
A9
100
AcDbEntity
  8
1
  6
CONTINUOUS
 62
   250
 48
0.805031
100
AcDbVertex
100
AcDb2dVertex
 10
17.67032
 20
10.82976
 30
0.0
 40
0.0
 41
0.0
  0
SEQEND
  5
AA
100
AcDbEntity
  8
0
  0
POLYLINE
  5
AB
100
AcDbEntity
  8
1
  6
CONTINUOUS
 62
   250
 48
0.805031
100
AcDb2dPolyline
 66
     1
 10
0.0
 20
0.0
 30
0.0
 70
   128
  0
VERTEX
  5
AC
100
AcDbEntity
  8
1
  6
CONTINUOUS
 62
   250
 48
0.805031
100
AcDbVertex
100
AcDb2dVertex
 10
18.43032
 20
13.259761
 30
0.0
 40
0.0
 41
0.0
  0
VERTEX
  5
AD
100
AcDbEntity
  8
1
  6
CONTINUOUS
 62
   250
 48
0.805031
100
AcDbVertex
100
AcDb2dVertex
 10
18.43032
 20
11.779761
 30
0.0
 40
0.0
 41
0.0
  0
SEQEND
  5
AE
100
AcDbEntity
  8
0
  0
ARC
  5
AF
100
AcDbEntity
  8
1
  6
CONTINUOUS
 62
   250
 48
0.805031
100
AcDbCircle
 10
-18.68032
 20
11.779761
 30
0.0
 40
0.25
210
0.0
220
0.0
230
-1.0
100
AcDbArc
 50
270.0
 51
360.0
  0
POLYLINE
  5
B0
100
AcDbEntity
  8
1
  6
CONTINUOUS
 62
   250
 48
0.805031
100
AcDb2dPolyline
 66
     1
 10
0.0
 20
0.0
 30
0.0
 70
   128
  0
VERTEX
  5
B1
100
AcDbEntity
  8
1
  6
CONTINUOUS
 62
   250
 48
0.805031
100
AcDbVertex
100
AcDb2dVertex
 10
18.68032
 20
11.529761
 30
0.0
 40
0.0
 41
0.0
  0
VERTEX
  5
B2
100
AcDbEntity
  8
1
  6
CONTINUOUS
 62
   250
 48
0.805031
100
AcDbVertex
100
AcDb2dVertex
 10
19.40032
 20
11.529761
 30
0.0
 40
0.0
 41
0.0
  0
SEQEND
  5
B3
100
AcDbEntity
  8
0
  0
POLYLINE
  5
B4
100
AcDbEntity
  8
1
  6
HIDDEN
 62
   250
 48
0.25
100
AcDb2dPolyline
 66
     1
 10
0.0
 20
0.0
 30
0.0
 70
   128
  0
VERTEX
  5
B5
100
AcDbEntity
  8
1
  6
HIDDEN
 62
   250
 48
0.25
100
AcDbVertex
100
AcDb2dVertex
 10
18.050321
 20
13.259761
 30
0.0
 40
0.0
 41
0.0
  0
VERTEX
  5
B6
100
AcDbEntity
  8
1
  6
HIDDEN
 62
   250
 48
0.25
100
AcDbVertex
100
AcDb2dVertex
 10
18.050321
 20
11.529761
 30
0.0
 40
0.0
 41
0.0
  0
VERTEX
  5
B7
100
AcDbEntity
  8
1
  6
HIDDEN
 62
   250
 48
0.25
100
AcDbVertex
100
AcDb2dVertex
 10
18.68032
 20
11.529761
 30
0.0
 40
0.0
 41
0.0
  0
SEQEND
  5
B8
100
AcDbEntity
  8
0
  0
POLYLINE
  5
B9
100
AcDbEntity
  8
1
  6
HIDDEN
 62
   250
 48
0.25
100
AcDb2dPolyline
 66
     1
 10
0.0
 20
0.0
 30
0.0
 70
   128
  0
VERTEX
  5
BA
100
AcDbEntity
  8
1
  6
HIDDEN
 62
   250
 48
0.25
100
AcDbVertex
100
AcDb2dVertex
 10
19.015319
 20
11.529761
 30
0.0
 40
0.0
 41
0.0
  0
VERTEX
  5
BB
100
AcDbEntity
  8
1
  6
HIDDEN
 62
   250
 48
0.25
100
AcDbVertex
100
AcDb2dVertex
 10
19.015319
 20
11.18976
 30
0.0
 40
0.0
 41
0.0
  0
SEQEND
  5
BC
100
AcDbEntity
  8
0
  0
POLYLINE
  5
BD
100
AcDbEntity
  8
1
  6
HIDDEN
 62
   250
 48
0.25
100
AcDb2dPolyline
 66
     1
 10
0.0
 20
0.0
 30
0.0
 70
   128
  0
VERTEX
  5
BE
100
AcDbEntity
  8
1
  6
HIDDEN
 62
   250
 48
0.25
100
AcDbVertex
100
AcDb2dVertex
 10
18.50332
 20
11.529761
 30
0.0
 40
0.0
 41
0.0
  0
VERTEX
  5
BF
100
AcDbEntity
  8
1
  6
HIDDEN
 62
   250
 48
0.25
100
AcDbVertex
100
AcDb2dVertex
 10
18.50332
 20
11.18976
 30
0.0
 40
0.0
 41
0.0
  0
SEQEND
  5
C0
100
AcDbEntity
  8
0
  0
POLYLINE
  5
C1
100
AcDbEntity
  8
1
  6
CONTINUOUS
 62
   250
 48
0.805031
100
AcDb2dPolyline
 66
     1
 10
0.0
 20
0.0
 30
0.0
 70
   128
  0
VERTEX
  5
C2
100
AcDbEntity
  8
1
  6
CONTINUOUS
 62
   250
 48
0.805031
100
AcDbVertex
100
AcDb2dVertex
 10
19.40032
 20
11.529761
 30
0.0
 40
0.0
 41
0.0
  0
VERTEX
  5
C3
100
AcDbEntity
  8
1
  6
CONTINUOUS
 62
   250
 48
0.805031
100
AcDbVertex
100
AcDb2dVertex
 10
19.40032
 20
10.82976
 30
0.0
 40
0.0
 41
0.0
  0
SEQEND
  5
C4
100
AcDbEntity
  8
0
  0
POLYLINE
  5
C5
100
AcDbEntity
  8
1
  6
CONTINUOUS
 62
   250
 48
0.805031
100
AcDb2dPolyline
 66
     1
 10
0.0
 20
0.0
 30
0.0
 70
   128
  0
VERTEX
  5
C6
100
AcDbEntity
  8
1
  6
CONTINUOUS
 62
   250
 48
0.805031
100
AcDbVertex
100
AcDb2dVertex
 10
19.40032
 20
13.259761
 30
0.0
 40
0.0
 41
0.0
  0
VERTEX
  5
C7
100
AcDbEntity
  8
1
  6
CONTINUOUS
 62
   250
 48
0.805031
100
AcDbVertex
100
AcDb2dVertex
 10
19.40032
 20
11.529761
 30
0.0
 40
0.0
 41
0.0
  0
SEQEND
  5
C8
100
AcDbEntity
  8
0
  0
POLYLINE
  5
C9
100
AcDbEntity
  8
1
  6
CONTINUOUS
 62
   250
 48
0.805031
100
AcDb2dPolyline
 66
     1
 10
0.0
 20
0.0
 30
0.0
 70
   128
  0
VERTEX
  5
CA
100
AcDbEntity
  8
1
  6
CONTINUOUS
 62
   250
 48
0.805031
100
AcDbVertex
100
AcDb2dVertex
 10
13.94532
 20
13.259759
 30
0.0
 40
0.0
 41
0.0
  0
VERTEX
  5
CB
100
AcDbEntity
  8
1
  6
CONTINUOUS
 62
   250
 48
0.805031
100
AcDbVertex
100
AcDb2dVertex
 10
12.77532
 20
13.259759
 30
0.0
 40
0.0
 41
0.0
  0
SEQEND
  5
CC
100
AcDbEntity
  8
0
  0
POLYLINE
  5
CD
100
AcDbEntity
  8
1
  6
CONTINUOUS
 62
   250
 48
0.805031
100
AcDb2dPolyline
 66
     1
 10
0.0
 20
0.0
 30
0.0
 70
   128
  0
VERTEX
  5
CE
100
AcDbEntity
  8
1
  6
CONTINUOUS
 62
   250
 48
0.805031
100
AcDbVertex
100
AcDb2dVertex
 10
13.15032
 20
11.52976
 30
0.0
 40
0.0
 41
0.0
  0
VERTEX
  5
CF
100
AcDbEntity
  8
1
  6
CONTINUOUS
 62
   250
 48
0.805031
100
AcDbVertex
100
AcDb2dVertex
 10
13.94532
 20
11.52976
 30
0.0
 40
0.0
 41
0.0
  0
SEQEND
  5
D0
100
AcDbEntity
  8
0
  0
POLYLINE
  5
D1
100
AcDbEntity
  8
1
  6
CONTINUOUS
 62
   250
 48
0.1
100
AcDb2dPolyline
 66
     1
 10
0.0
 20
0.0
 30
0.0
 70
   128
  0
VERTEX
  5
D2
100
AcDbEntity
  8
1
  6
CONTINUOUS
 62
   250
 48
0.1
100
AcDbVertex
100
AcDb2dVertex
 10
12.05032
 20
14.65976
 30
0.0
 40
0.0
 41
0.0
  0
VERTEX
  5
D3
100
AcDbEntity
  8
1
  6
CONTINUOUS
 62
   250
 48
0.1
100
AcDbVertex
100
AcDb2dVertex
 10
12.05032
 20
15.03856
 30
0.0
 40
0.0
 41
0.0
  0
SEQEND
  5
D4
100
AcDbEntity
  8
0
  0
POLYLINE
  5
D5
100
AcDbEntity
  8
1
  6
CONTINUOUS
 62
   250
 48
0.1
100
AcDb2dPolyline
 66
     1
 10
0.0
 20
0.0
 30
0.0
 70
   128
  0
VERTEX
  5
D6
100
AcDbEntity
  8
1
  6
CONTINUOUS
 62
   250
 48
0.1
100
AcDbVertex
100
AcDb2dVertex
 10
16.90032
 20
14.65976
 30
0.0
 40
0.0
 41
0.0
  0
VERTEX
  5
D7
100
AcDbEntity
  8
1
  6
CONTINUOUS
 62
   250
 48
0.1
100
AcDbVertex
100
AcDb2dVertex
 10
16.90032
 20
15.03856
 30
0.0
 40
0.0
 41
0.0
  0
SEQEND
  5
D8
100
AcDbEntity
  8
0
  0
POLYLINE
  5
D9
100
AcDbEntity
  8
1
  6
CONTINUOUS
 62
   250
 48
0.1
100
AcDb2dPolyline
 66
     1
 10
0.0
 20
0.0
 30
0.0
 70
   128
  0
VERTEX
  5
DA
100
AcDbEntity
  8
1
  6
CONTINUOUS
 62
   250
 48
0.1
100
AcDbVertex
100
AcDb2dVertex
 10
14.233891
 20
14.988561
 30
0.0
 40
0.0
 41
0.0
  0
VERTEX
  5
DB
100
AcDbEntity
  8
1
  6
CONTINUOUS
 62
   250
 48
0.1
100
AcDbVertex
100
AcDb2dVertex
 10
12.05032
 20
14.988561
 30
0.0
 40
0.0
 41
0.0
  0
SEQEND
  5
DC
100
AcDbEntity
  8
0
  0
POLYLINE
  5
DD
100
AcDbEntity
  8
1
  6
CONTINUOUS
 62
   250
 48
0.1
100
AcDb2dPolyline
 66
     1
 10
0.0
 20
0.0
 30
0.0
 70
   128
  0
VERTEX
  5
DE
100
AcDbEntity
  8
1
  6
CONTINUOUS
 62
   250
 48
0.1
100
AcDbVertex
100
AcDb2dVertex
 10
12.15032
 20
14.968561
 30
0.0
 40
0.0
 41
0.0
  0
VERTEX
  5
DF
100
AcDbEntity
  8
1
  6
CONTINUOUS
 62
   250
 48
0.1
100
AcDbVertex
100
AcDb2dVertex
 10
12.05032
 20
14.988561
 30
0.0
 40
0.0
 41
0.0
  0
VERTEX
  5
E0
100
AcDbEntity
  8
1
  6
CONTINUOUS
 62
   250
 48
0.1
100
AcDbVertex
100
AcDb2dVertex
 10
12.15032
 20
15.00856
 30
0.0
 40
0.0
 41
0.0
  0
SEQEND
  5
E1
100
AcDbEntity
  8
0
  0
POLYLINE
  5
E2
100
AcDbEntity
  8
1
  6
CONTINUOUS
 62
   250
 48
0.1
100
AcDb2dPolyline
 66
     1
 10
0.0
 20
0.0
 30
0.0
 70
   128
  0
VERTEX
  5
E3
100
AcDbEntity
  8
1
  6
CONTINUOUS
 62
   250
 48
0.1
100
AcDbVertex
100
AcDb2dVertex
 10
14.716748
 20
14.988561
 30
0.0
 40
0.0
 41
0.0
  0
VERTEX
  5
E4
100
AcDbEntity
  8
1
  6
CONTINUOUS
 62
   250
 48
0.1
100
AcDbVertex
100
AcDb2dVertex
 10
16.90032
 20
14.988561
 30
0.0
 40
0.0
 41
0.0
  0
SEQEND
  5
E5
100
AcDbEntity
  8
0
  0
POLYLINE
  5
E6
100
AcDbEntity
  8
1
  6
CONTINUOUS
 62
   250
 48
0.1
100
AcDb2dPolyline
 66
     1
 10
0.0
 20
0.0
 30
0.0
 70
   128
  0
VERTEX
  5
E7
100
AcDbEntity
  8
1
  6
CONTINUOUS
 62
   250
 48
0.1
100
AcDbVertex
100
AcDb2dVertex
 10
16.800321
 20
15.00856
 30
0.0
 40
0.0
 41
0.0
  0
VERTEX
  5
E8
100
AcDbEntity
  8
1
  6
CONTINUOUS
 62
   250
 48
0.1
100
AcDbVertex
100
AcDb2dVertex
 10
16.90032
 20
14.988561
 30
0.0
 40
0.0
 41
0.0
  0
VERTEX
  5
E9
100
AcDbEntity
  8
1
  6
CONTINUOUS
 62
   250
 48
0.1
100
AcDbVertex
100
AcDb2dVertex
 10
16.800321
 20
14.968561
 30
0.0
 40
0.0
 41
0.0
  0
SEQEND
  5
EA
100
AcDbEntity
  8
0
  0
TEXT
  5
EB
100
AcDbEntity
  8
1
 62
   250
 48
0.0
100
AcDbText
 10
14.283891
 20
14.938561
 30
0.0
 40
0.099999
  1
4.850
 72
     5
 11
14.666748
 21
14.938561
 31
0.0
210
0.0
220
0.0
230
1.0
100
AcDbText
  0
POLYLINE
  5
EC
100
AcDbEntity
  8
1
  6
CONTINUOUS
 62
   250
 48
0.1
100
AcDb2dPolyline
 66
     1
 10
0.0
 20
0.0
 30
0.0
 70
   128
  0
VERTEX
  5
ED
100
AcDbEntity
  8
1
  6
CONTINUOUS
 62
   250
 48
0.1
100
AcDbVertex
100
AcDb2dVertex
 10
11.95032
 20
13.44956
 30
0.0
 40
0.0
 41
0.0
  0
VERTEX
  5
EE
100
AcDbEntity
  8
1
  6
CONTINUOUS
 62
   250
 48
0.1
100
AcDbVertex
100
AcDb2dVertex
 10
11.81272
 20
13.44956
 30
0.0
 40
0.0
 41
0.0
  0
SEQEND
  5
EF
100
AcDbEntity
  8
0
  0
POLYLINE
  5
F0
100
AcDbEntity
  8
1
  6
CONTINUOUS
 62
   250
 48
0.1
100
AcDb2dPolyline
 66
     1
 10
0.0
 20
0.0
 30
0.0
 70
   128
  0
VERTEX
  5
F1
100
AcDbEntity
  8
1
  6
CONTINUOUS
 62
   250
 48
0.1
100
AcDbVertex
100
AcDb2dVertex
 10
11.95032
 20
14.31566
 30
0.0
 40
0.0
 41
0.0
  0
VERTEX
  5
F2
100
AcDbEntity
  8
1
  6
CONTINUOUS
 62
   250
 48
0.1
100
AcDbVertex
100
AcDb2dVertex
 10
11.81272
 20
14.31566
 30
0.0
 40
0.0
 41
0.0
  0
SEQEND
  5
F3
100
AcDbEntity
  8
0
  0
POLYLINE
  5
F4
100
AcDbEntity
  8
1
  6
CONTINUOUS
 62
   250
 48
0.1
100
AcDb2dPolyline
 66
     1
 10
0.0
 20
0.0
 30
0.0
 70
   128
  0
VERTEX
  5
F5
100
AcDbEntity
  8
1
  6
CONTINUOUS
 62
   250
 48
0.1
100
AcDbVertex
100
AcDb2dVertex
 10
11.86272
 20
13.645944
 30
0.0
 40
0.0
 41
0.0
  0
VERTEX
  5
F6
100
AcDbEntity
  8
1
  6
CONTINUOUS
 62
   250
 48
0.1
100
AcDbVertex
100
AcDb2dVertex
 10
11.86272
 20
13.44956
 30
0.0
 40
0.0
 41
0.0
  0
SEQEND
  5
F7
100
AcDbEntity
  8
0
  0
POLYLINE
  5
F8
100
AcDbEntity
  8
1
  6
CONTINUOUS
 62
   250
 48
0.1
100
AcDb2dPolyline
 66
     1
 10
0.0
 20
0.0
 30
0.0
 70
   128
  0
VERTEX
  5
F9
100
AcDbEntity
  8
1
  6
CONTINUOUS
 62
   250
 48
0.1
100
AcDbVertex
100
AcDb2dVertex
 10
11.88272
 20
13.549559
 30
0.0
 40
0.0
 41
0.0
  0
VERTEX
  5
FA
100
AcDbEntity
  8
1
  6
CONTINUOUS
 62
   250
 48
0.1
100
AcDbVertex
100
AcDb2dVertex
 10
11.86272
 20
13.44956
 30
0.0
 40
0.0
 41
0.0
  0
VERTEX
  5
FB
100
AcDbEntity
  8
1
  6
CONTINUOUS
 62
   250
 48
0.1
100
AcDbVertex
100
AcDb2dVertex
 10
11.84272
 20
13.549559
 30
0.0
 40
0.0
 41
0.0
  0
SEQEND
  5
FC
100
AcDbEntity
  8
0
  0
POLYLINE
  5
FD
100
AcDbEntity
  8
1
  6
CONTINUOUS
 62
   250
 48
0.1
100
AcDb2dPolyline
 66
     1
 10
0.0
 20
0.0
 30
0.0
 70
   128
  0
VERTEX
  5
FE
100
AcDbEntity
  8
1
  6
CONTINUOUS
 62
   250
 48
0.1
100
AcDbVertex
100
AcDb2dVertex
 10
11.86272
 20
14.119276
 30
0.0
 40
0.0
 41
0.0
  0
VERTEX
  5
FF
100
AcDbEntity
  8
1
  6
CONTINUOUS
 62
   250
 48
0.1
100
AcDbVertex
100
AcDb2dVertex
 10
11.86272
 20
14.31566
 30
0.0
 40
0.0
 41
0.0
  0
SEQEND
  5
100
100
AcDbEntity
  8
0
  0
POLYLINE
  5
101
100
AcDbEntity
  8
1
  6
CONTINUOUS
 62
   250
 48
0.1
100
AcDb2dPolyline
 66
     1
 10
0.0
 20
0.0
 30
0.0
 70
   128
  0
VERTEX
  5
102
100
AcDbEntity
  8
1
  6
CONTINUOUS
 62
   250
 48
0.1
100
AcDbVertex
100
AcDb2dVertex
 10
11.84272
 20
14.215661
 30
0.0
 40
0.0
 41
0.0
  0
VERTEX
  5
103
100
AcDbEntity
  8
1
  6
CONTINUOUS
 62
   250
 48
0.1
100
AcDbVertex
100
AcDb2dVertex
 10
11.86272
 20
14.31566
 30
0.0
 40
0.0
 41
0.0
  0
VERTEX
  5
104
100
AcDbEntity
  8
1
  6
CONTINUOUS
 62
   250
 48
0.1
100
AcDbVertex
100
AcDb2dVertex
 10
11.88272
 20
14.215661
 30
0.0
 40
0.0
 41
0.0
  0
SEQEND
  5
105
100
AcDbEntity
  8
0
  0
TEXT
  5
106
100
AcDbEntity
  8
1
 62
   250
 48
0.0
100
AcDbText
 10
11.91272
 20
13.695944
 30
0.0
 40
0.1
  1
0.866
 50
90.0
 72
     5
 11
11.91272
 21
14.069278
 31
0.0
210
0.0
220
0.0
230
1.0
100
AcDbText
  0
POLYLINE
  5
107
100
AcDbEntity
  8
1
  6
CONTINUOUS
 62
   250
 48
0.1
100
AcDb2dPolyline
 66
     1
 10
0.0
 20
0.0
 30
0.0
 70
   128
  0
VERTEX
  5
108
100
AcDbEntity
  8
1
  6
CONTINUOUS
 62
   250
 48
0.1
100
AcDbVertex
100
AcDb2dVertex
 10
11.95032
 20
13.259759
 30
0.0
 40
0.0
 41
0.0
  0
VERTEX
  5
109
100
AcDbEntity
  8
1
  6
CONTINUOUS
 62
   250
 48
0.1
100
AcDbVertex
100
AcDb2dVertex
 10
11.424121
 20
13.259759
 30
0.0
 40
0.0
 41
0.0
  0
SEQEND
  5
10A
100
AcDbEntity
  8
0
  0
POLYLINE
  5
10B
100
AcDbEntity
  8
1
  6
CONTINUOUS
 62
   250
 48
0.1
100
AcDb2dPolyline
 66
     1
 10
0.0
 20
0.0
 30
0.0
 70
   128
  0
VERTEX
  5
10C
100
AcDbEntity
  8
1
  6
CONTINUOUS
 62
   250
 48
0.1
100
AcDbVertex
100
AcDb2dVertex
 10
11.47412
 20
13.686427
 30
0.0
 40
0.0
 41
0.0
  0
VERTEX
  5
10D
100
AcDbEntity
  8
1
  6
CONTINUOUS
 62
   250
 48
0.1
100
AcDbVertex
100
AcDb2dVertex
 10
11.47412
 20
13.259759
 30
0.0
 40
0.0
 41
0.0
  0
SEQEND
  5
10E
100
AcDbEntity
  8
0
  0
POLYLINE
  5
10F
100
AcDbEntity
  8
1
  6
CONTINUOUS
 62
   250
 48
0.1
100
AcDb2dPolyline
 66
     1
 10
0.0
 20
0.0
 30
0.0
 70
   128
  0
VERTEX
  5
110
100
AcDbEntity
  8
1
  6
CONTINUOUS
 62
   250
 48
0.1
100
AcDbVertex
100
AcDb2dVertex
 10
11.494121
 20
13.359759
 30
0.0
 40
0.0
 41
0.0
  0
VERTEX
  5
111
100
AcDbEntity
  8
1
  6
CONTINUOUS
 62
   250
 48
0.1
100
AcDbVertex
100
AcDb2dVertex
 10
11.47412
 20
13.259759
 30
0.0
 40
0.0
 41
0.0
  0
VERTEX
  5
112
100
AcDbEntity
  8
1
  6
CONTINUOUS
 62
   250
 48
0.1
100
AcDbVertex
100
AcDb2dVertex
 10
11.45412
 20
13.359759
 30
0.0
 40
0.0
 41
0.0
  0
SEQEND
  5
113
100
AcDbEntity
  8
0
  0
POLYLINE
  5
114
100
AcDbEntity
  8
1
  6
CONTINUOUS
 62
   250
 48
0.1
100
AcDb2dPolyline
 66
     1
 10
0.0
 20
0.0
 30
0.0
 70
   128
  0
VERTEX
  5
115
100
AcDbEntity
  8
1
  6
CONTINUOUS
 62
   250
 48
0.1
100
AcDbVertex
100
AcDb2dVertex
 10
11.47412
 20
14.133093
 30
0.0
 40
0.0
 41
0.0
  0
VERTEX
  5
116
100
AcDbEntity
  8
1
  6
CONTINUOUS
 62
   250
 48
0.1
100
AcDbVertex
100
AcDb2dVertex
 10
11.47412
 20
14.559761
 30
0.0
 40
0.0
 41
0.0
  0
SEQEND
  5
117
100
AcDbEntity
  8
0
  0
POLYLINE
  5
118
100
AcDbEntity
  8
1
  6
CONTINUOUS
 62
   250
 48
0.1
100
AcDb2dPolyline
 66
     1
 10
0.0
 20
0.0
 30
0.0
 70
   128
  0
VERTEX
  5
119
100
AcDbEntity
  8
1
  6
CONTINUOUS
 62
   250
 48
0.1
100
AcDbVertex
100
AcDb2dVertex
 10
11.45412
 20
14.459761
 30
0.0
 40
0.0
 41
0.0
  0
VERTEX
  5
11A
100
AcDbEntity
  8
1
  6
CONTINUOUS
 62
   250
 48
0.1
100
AcDbVertex
100
AcDb2dVertex
 10
11.47412
 20
14.559761
 30
0.0
 40
0.0
 41
0.0
  0
VERTEX
  5
11B
100
AcDbEntity
  8
1
  6
CONTINUOUS
 62
   250
 48
0.1
100
AcDbVertex
100
AcDb2dVertex
 10
11.494121
 20
14.459761
 30
0.0
 40
0.0
 41
0.0
  0
SEQEND
  5
11C
100
AcDbEntity
  8
0
  0
TEXT
  5
11D
100
AcDbEntity
  8
1
 62
   250
 48
0.0
100
AcDbText
 10
11.52412
 20
13.736426
 30
0.0
 40
0.1
  1
1.300
 50
90.0
 72
     5
 11
11.52412
 21
14.083094
 31
0.0
210
0.0
220
0.0
230
1.0
100
AcDbText
  0
POLYLINE
  5
11E
100
AcDbEntity
  8
1
  6
CONTINUOUS
 62
   250
 48
0.1
100
AcDb2dPolyline
 66
     1
 10
0.0
 20
0.0
 30
0.0
 70
   128
  0
VERTEX
  5
11F
100
AcDbEntity
  8
1
  6
CONTINUOUS
 62
   250
 48
0.1
100
AcDbVertex
100
AcDb2dVertex
 10
11.95032
 20
14.559761
 30
0.0
 40
0.0
 41
0.0
  0
VERTEX
  5
120
100
AcDbEntity
  8
1
  6
CONTINUOUS
 62
   250
 48
0.1
100
AcDbVertex
100
AcDb2dVertex
 10
11.117161
 20
14.559761
 30
0.0
 40
0.0
 41
0.0
  0
SEQEND
  5
121
100
AcDbEntity
  8
0
  0
POLYLINE
  5
122
100
AcDbEntity
  8
1
  6
CONTINUOUS
 62
   250
 48
0.1
100
AcDb2dPolyline
 66
     1
 10
0.0
 20
0.0
 30
0.0
 70
   128
  0
VERTEX
  5
123
100
AcDbEntity
  8
1
  6
CONTINUOUS
 62
   250
 48
0.1
100
AcDbVertex
100
AcDb2dVertex
 10
13.050321
 20
10.82976
 30
0.0
 40
0.0
 41
0.0
  0
VERTEX
  5
124
100
AcDbEntity
  8
1
  6
CONTINUOUS
 62
   250
 48
0.1
100
AcDbVertex
100
AcDb2dVertex
 10
11.117161
 20
10.82976
 30
0.0
 40
0.0
 41
0.0
  0
SEQEND
  5
125
100
AcDbEntity
  8
0
  0
POLYLINE
  5
126
100
AcDbEntity
  8
1
  6
CONTINUOUS
 62
   250
 48
0.1
100
AcDb2dPolyline
 66
     1
 10
0.0
 20
0.0
 30
0.0
 70
   128
  0
VERTEX
  5
127
100
AcDbEntity
  8
1
  6
CONTINUOUS
 62
   250
 48
0.1
100
AcDbVertex
100
AcDb2dVertex
 10
11.16716
 20
12.931903
 30
0.0
 40
0.0
 41
0.0
  0
VERTEX
  5
128
100
AcDbEntity
  8
1
  6
CONTINUOUS
 62
   250
 48
0.1
100
AcDbVertex
100
AcDb2dVertex
 10
11.16716
 20
14.559761
 30
0.0
 40
0.0
 41
0.0
  0
SEQEND
  5
129
100
AcDbEntity
  8
0
  0
POLYLINE
  5
12A
100
AcDbEntity
  8
1
  6
CONTINUOUS
 62
   250
 48
0.1
100
AcDb2dPolyline
 66
     1
 10
0.0
 20
0.0
 30
0.0
 70
   128
  0
VERTEX
  5
12B
100
AcDbEntity
  8
1
  6
CONTINUOUS
 62
   250
 48
0.1
100
AcDbVertex
100
AcDb2dVertex
 10
11.14716
 20
14.459761
 30
0.0
 40
0.0
 41
0.0
  0
VERTEX
  5
12C
100
AcDbEntity
  8
1
  6
CONTINUOUS
 62
   250
 48
0.1
100
AcDbVertex
100
AcDb2dVertex
 10
11.16716
 20
14.559761
 30
0.0
 40
0.0
 41
0.0
  0
VERTEX
  5
12D
100
AcDbEntity
  8
1
  6
CONTINUOUS
 62
   250
 48
0.1
100
AcDbVertex
100
AcDb2dVertex
 10
11.187161
 20
14.459761
 30
0.0
 40
0.0
 41
0.0
  0
SEQEND
  5
12E
100
AcDbEntity
  8
0
  0
POLYLINE
  5
12F
100
AcDbEntity
  8
1
  6
CONTINUOUS
 62
   250
 48
0.1
100
AcDb2dPolyline
 66
     1
 10
0.0
 20
0.0
 30
0.0
 70
   128
  0
VERTEX
  5
130
100
AcDbEntity
  8
1
  6
CONTINUOUS
 62
   250
 48
0.1
100
AcDbVertex
100
AcDb2dVertex
 10
11.16716
 20
12.457617
 30
0.0
 40
0.0
 41
0.0
  0
VERTEX
  5
131
100
AcDbEntity
  8
1
  6
CONTINUOUS
 62
   250
 48
0.1
100
AcDbVertex
100
AcDb2dVertex
 10
11.16716
 20
10.82976
 30
0.0
 40
0.0
 41
0.0
  0
SEQEND
  5
132
100
AcDbEntity
  8
0
  0
POLYLINE
  5
133
100
AcDbEntity
  8
1
  6
CONTINUOUS
 62
   250
 48
0.1
100
AcDb2dPolyline
 66
     1
 10
0.0
 20
0.0
 30
0.0
 70
   128
  0
VERTEX
  5
134
100
AcDbEntity
  8
1
  6
CONTINUOUS
 62
   250
 48
0.1
100
AcDbVertex
100
AcDb2dVertex
 10
11.187161
 20
10.92976
 30
0.0
 40
0.0
 41
0.0
  0
VERTEX
  5
135
100
AcDbEntity
  8
1
  6
CONTINUOUS
 62
   250
 48
0.1
100
AcDbVertex
100
AcDb2dVertex
 10
11.16716
 20
10.82976
 30
0.0
 40
0.0
 41
0.0
  0
VERTEX
  5
136
100
AcDbEntity
  8
1
  6
CONTINUOUS
 62
   250
 48
0.1
100
AcDbVertex
100
AcDb2dVertex
 10
11.14716
 20
10.92976
 30
0.0
 40
0.0
 41
0.0
  0
SEQEND
  5
137
100
AcDbEntity
  8
0
  0
TEXT
  5
138
100
AcDbEntity
  8
1
 62
   250
 48
0.0
100
AcDbText
 10
11.217161
 20
12.507617
 30
0.0
 40
0.1
  1
3.730
 50
90.0
 72
     5
 11
11.217161
 21
12.881902
 31
0.0
210
0.0
220
0.0
230
1.0
100
AcDbText
  0
POLYLINE
  5
139
100
AcDbEntity
  8
1
  6
CONTINUOUS
 62
   250
 48
0.1
100
AcDb2dPolyline
 66
     1
 10
0.0
 20
0.0
 30
0.0
 70
   128
  0
VERTEX
  5
13A
100
AcDbEntity
  8
1
  6
CONTINUOUS
 62
   250
 48
0.1
100
AcDbVertex
100
AcDb2dVertex
 10
11.95032
 20
13.259761
 30
0.0
 40
0.0
 41
0.0
  0
VERTEX
  5
13B
100
AcDbEntity
  8
1
  6
CONTINUOUS
 62
   250
 48
0.1
100
AcDbVertex
100
AcDb2dVertex
 10
11.424121
 20
13.259761
 30
0.0
 40
0.0
 41
0.0
  0
SEQEND
  5
13C
100
AcDbEntity
  8
0
  0
POLYLINE
  5
13D
100
AcDbEntity
  8
1
  6
CONTINUOUS
 62
   250
 48
0.1
100
AcDb2dPolyline
 66
     1
 10
0.0
 20
0.0
 30
0.0
 70
   128
  0
VERTEX
  5
13E
100
AcDbEntity
  8
1
  6
CONTINUOUS
 62
   250
 48
0.1
100
AcDbVertex
100
AcDb2dVertex
 10
11.47412
 20
12.288094
 30
0.0
 40
0.0
 41
0.0
  0
VERTEX
  5
13F
100
AcDbEntity
  8
1
  6
CONTINUOUS
 62
   250
 48
0.1
100
AcDbVertex
100
AcDb2dVertex
 10
11.47412
 20
13.259761
 30
0.0
 40
0.0
 41
0.0
  0
SEQEND
  5
140
100
AcDbEntity
  8
0
  0
POLYLINE
  5
141
100
AcDbEntity
  8
1
  6
CONTINUOUS
 62
   250
 48
0.1
100
AcDb2dPolyline
 66
     1
 10
0.0
 20
0.0
 30
0.0
 70
   128
  0
VERTEX
  5
142
100
AcDbEntity
  8
1
  6
CONTINUOUS
 62
   250
 48
0.1
100
AcDbVertex
100
AcDb2dVertex
 10
11.45412
 20
13.159762
 30
0.0
 40
0.0
 41
0.0
  0
VERTEX
  5
143
100
AcDbEntity
  8
1
  6
CONTINUOUS
 62
   250
 48
0.1
100
AcDbVertex
100
AcDb2dVertex
 10
11.47412
 20
13.259761
 30
0.0
 40
0.0
 41
0.0
  0
VERTEX
  5
144
100
AcDbEntity
  8
1
  6
CONTINUOUS
 62
   250
 48
0.1
100
AcDbVertex
100
AcDb2dVertex
 10
11.494121
 20
13.159762
 30
0.0
 40
0.0
 41
0.0
  0
SEQEND
  5
145
100
AcDbEntity
  8
0
  0
POLYLINE
  5
146
100
AcDbEntity
  8
1
  6
CONTINUOUS
 62
   250
 48
0.1
100
AcDb2dPolyline
 66
     1
 10
0.0
 20
0.0
 30
0.0
 70
   128
  0
VERTEX
  5
147
100
AcDbEntity
  8
1
  6
CONTINUOUS
 62
   250
 48
0.1
100
AcDbVertex
100
AcDb2dVertex
 10
11.47412
 20
11.801427
 30
0.0
 40
0.0
 41
0.0
  0
VERTEX
  5
148
100
AcDbEntity
  8
1
  6
CONTINUOUS
 62
   250
 48
0.1
100
AcDbVertex
100
AcDb2dVertex
 10
11.47412
 20
10.82976
 30
0.0
 40
0.0
 41
0.0
  0
SEQEND
  5
149
100
AcDbEntity
  8
0
  0
POLYLINE
  5
14A
100
AcDbEntity
  8
1
  6
CONTINUOUS
 62
   250
 48
0.1
100
AcDb2dPolyline
 66
     1
 10
0.0
 20
0.0
 30
0.0
 70
   128
  0
VERTEX
  5
14B
100
AcDbEntity
  8
1
  6
CONTINUOUS
 62
   250
 48
0.1
100
AcDbVertex
100
AcDb2dVertex
 10
11.494121
 20
10.92976
 30
0.0
 40
0.0
 41
0.0
  0
VERTEX
  5
14C
100
AcDbEntity
  8
1
  6
CONTINUOUS
 62
   250
 48
0.1
100
AcDbVertex
100
AcDb2dVertex
 10
11.47412
 20
10.82976
 30
0.0
 40
0.0
 41
0.0
  0
VERTEX
  5
14D
100
AcDbEntity
  8
1
  6
CONTINUOUS
 62
   250
 48
0.1
100
AcDbVertex
100
AcDb2dVertex
 10
11.45412
 20
10.92976
 30
0.0
 40
0.0
 41
0.0
  0
SEQEND
  5
14E
100
AcDbEntity
  8
0
  0
TEXT
  5
14F
100
AcDbEntity
  8
1
 62
   250
 48
0.0
100
AcDbText
 10
11.524121
 20
11.851427
 30
0.0
 40
0.1
  1
2.430
 50
90.0
 72
     5
 11
11.524121
 21
12.238094
 31
0.0
210
0.0
220
0.0
230
1.0
100
AcDbText
  0
POLYLINE
  5
150
100
AcDbEntity
  8
1
  6
CONTINUOUS
 62
   250
 48
0.1
100
AcDb2dPolyline
 66
     1
 10
0.0
 20
0.0
 30
0.0
 70
   128
  0
VERTEX
  5
151
100
AcDbEntity
  8
1
  6
CONTINUOUS
 62
   250
 48
0.1
100
AcDbVertex
100
AcDb2dVertex
 10
11.81272
 20
10.942617
 30
0.0
 40
0.0
 41
0.0
  0
VERTEX
  5
152
100
AcDbEntity
  8
1
  6
CONTINUOUS
 62
   250
 48
0.1
100
AcDbVertex
100
AcDb2dVertex
 10
11.81272
 20
10.82976
 30
0.0
 40
0.0
 41
0.0
  0
SEQEND
  5
153
100
AcDbEntity
  8
0
  0
POLYLINE
  5
154
100
AcDbEntity
  8
1
  6
CONTINUOUS
 62
   250
 48
0.1
100
AcDb2dPolyline
 66
     1
 10
0.0
 20
0.0
 30
0.0
 70
   128
  0
VERTEX
  5
155
100
AcDbEntity
  8
1
  6
CONTINUOUS
 62
   250
 48
0.1
100
AcDbVertex
100
AcDb2dVertex
 10
11.832721
 20
10.92976
 30
0.0
 40
0.0
 41
0.0
  0
VERTEX
  5
156
100
AcDbEntity
  8
1
  6
CONTINUOUS
 62
   250
 48
0.1
100
AcDbVertex
100
AcDb2dVertex
 10
11.81272
 20
10.82976
 30
0.0
 40
0.0
 41
0.0
  0
VERTEX
  5
157
100
AcDbEntity
  8
1
  6
CONTINUOUS
 62
   250
 48
0.1
100
AcDbVertex
100
AcDb2dVertex
 10
11.79272
 20
10.92976
 30
0.0
 40
0.0
 41
0.0
  0
SEQEND
  5
158
100
AcDbEntity
  8
0
  0
POLYLINE
  5
159
100
AcDbEntity
  8
1
  6
CONTINUOUS
 62
   250
 48
0.1
100
AcDb2dPolyline
 66
     1
 10
0.0
 20
0.0
 30
0.0
 70
   128
  0
VERTEX
  5
15A
100
AcDbEntity
  8
1
  6
CONTINUOUS
 62
   250
 48
0.1
100
AcDbVertex
100
AcDb2dVertex
 10
11.81272
 20
11.416902
 30
0.0
 40
0.0
 41
0.0
  0
VERTEX
  5
15B
100
AcDbEntity
  8
1
  6
CONTINUOUS
 62
   250
 48
0.1
100
AcDbVertex
100
AcDb2dVertex
 10
11.81272
 20
11.52976
 30
0.0
 40
0.0
 41
0.0
  0
SEQEND
  5
15C
100
AcDbEntity
  8
0
  0
POLYLINE
  5
15D
100
AcDbEntity
  8
1
  6
CONTINUOUS
 62
   250
 48
0.1
100
AcDb2dPolyline
 66
     1
 10
0.0
 20
0.0
 30
0.0
 70
   128
  0
VERTEX
  5
15E
100
AcDbEntity
  8
1
  6
CONTINUOUS
 62
   250
 48
0.1
100
AcDbVertex
100
AcDb2dVertex
 10
11.79272
 20
11.42976
 30
0.0
 40
0.0
 41
0.0
  0
VERTEX
  5
15F
100
AcDbEntity
  8
1
  6
CONTINUOUS
 62
   250
 48
0.1
100
AcDbVertex
100
AcDb2dVertex
 10
11.81272
 20
11.52976
 30
0.0
 40
0.0
 41
0.0
  0
VERTEX
  5
160
100
AcDbEntity
  8
1
  6
CONTINUOUS
 62
   250
 48
0.1
100
AcDbVertex
100
AcDb2dVertex
 10
11.832721
 20
11.42976
 30
0.0
 40
0.0
 41
0.0
  0
SEQEND
  5
161
100
AcDbEntity
  8
0
  0
TEXT
  5
162
100
AcDbEntity
  8
1
 62
   250
 48
0.0
100
AcDbText
 10
11.86272
 20
10.992617
 30
0.0
 40
0.1
  1
0.700
 50
90.0
 72
     5
 11
11.86272
 21
11.366903
 31
0.0
210
0.0
220
0.0
230
1.0
100
AcDbText
  0
POLYLINE
  5
163
100
AcDbEntity
  8
1
  6
CONTINUOUS
 62
   250
 48
0.1
100
AcDb2dPolyline
 66
     1
 10
0.0
 20
0.0
 30
0.0
 70
   128
  0
VERTEX
  5
164
100
AcDbEntity
  8
1
  6
CONTINUOUS
 62
   250
 48
0.1
100
AcDbVertex
100
AcDb2dVertex
 10
13.050321
 20
11.52976
 30
0.0
 40
0.0
 41
0.0
  0
VERTEX
  5
165
100
AcDbEntity
  8
1
  6
CONTINUOUS
 62
   250
 48
0.1
100
AcDbVertex
100
AcDb2dVertex
 10
11.762721
 20
11.52976
 30
0.0
 40
0.0
 41
0.0
  0
SEQEND
  5
166
100
AcDbEntity
  8
0
  0
POLYLINE
  5
167
100
AcDbEntity
  8
1
  6
CONTINUOUS
 62
   250
 48
0.1
100
AcDb2dPolyline
 66
     1
 10
0.0
 20
0.0
 30
0.0
 70
   128
  0
VERTEX
  5
168
100
AcDbEntity
  8
1
  6
CONTINUOUS
 62
   250
 48
0.1
100
AcDbVertex
100
AcDb2dVertex
 10
11.95032
 20
13.259759
 30
0.0
 40
0.0
 41
0.0
  0
VERTEX
  5
169
100
AcDbEntity
  8
1
  6
CONTINUOUS
 62
   250
 48
0.1
100
AcDbVertex
100
AcDb2dVertex
 10
11.762721
 20
13.259759
 30
0.0
 40
0.0
 41
0.0
  0
SEQEND
  5
16A
100
AcDbEntity
  8
0
  0
POLYLINE
  5
16B
100
AcDbEntity
  8
1
  6
CONTINUOUS
 62
   250
 48
0.1
100
AcDb2dPolyline
 66
     1
 10
0.0
 20
0.0
 30
0.0
 70
   128
  0
VERTEX
  5
16C
100
AcDbEntity
  8
1
  6
CONTINUOUS
 62
   250
 48
0.1
100
AcDbVertex
100
AcDb2dVertex
 10
11.81272
 20
12.17095
 30
0.0
 40
0.0
 41
0.0
  0
VERTEX
  5
16D
100
AcDbEntity
  8
1
  6
CONTINUOUS
 62
   250
 48
0.1
100
AcDbVertex
100
AcDb2dVertex
 10
11.81272
 20
11.52976
 30
0.0
 40
0.0
 41
0.0
  0
SEQEND
  5
16E
100
AcDbEntity
  8
0
  0
POLYLINE
  5
16F
100
AcDbEntity
  8
1
  6
CONTINUOUS
 62
   250
 48
0.1
100
AcDb2dPolyline
 66
     1
 10
0.0
 20
0.0
 30
0.0
 70
   128
  0
VERTEX
  5
170
100
AcDbEntity
  8
1
  6
CONTINUOUS
 62
   250
 48
0.1
100
AcDbVertex
100
AcDb2dVertex
 10
11.832721
 20
11.62976
 30
0.0
 40
0.0
 41
0.0
  0
VERTEX
  5
171
100
AcDbEntity
  8
1
  6
CONTINUOUS
 62
   250
 48
0.1
100
AcDbVertex
100
AcDb2dVertex
 10
11.81272
 20
11.52976
 30
0.0
 40
0.0
 41
0.0
  0
VERTEX
  5
172
100
AcDbEntity
  8
1
  6
CONTINUOUS
 62
   250
 48
0.1
100
AcDbVertex
100
AcDb2dVertex
 10
11.79272
 20
11.62976
 30
0.0
 40
0.0
 41
0.0
  0
SEQEND
  5
173
100
AcDbEntity
  8
0
  0
POLYLINE
  5
174
100
AcDbEntity
  8
1
  6
CONTINUOUS
 62
   250
 48
0.1
100
AcDb2dPolyline
 66
     1
 10
0.0
 20
0.0
 30
0.0
 70
   128
  0
VERTEX
  5
175
100
AcDbEntity
  8
1
  6
CONTINUOUS
 62
   250
 48
0.1
100
AcDbVertex
100
AcDb2dVertex
 10
11.81272
 20
12.618569
 30
0.0
 40
0.0
 41
0.0
  0
VERTEX
  5
176
100
AcDbEntity
  8
1
  6
CONTINUOUS
 62
   250
 48
0.1
100
AcDbVertex
100
AcDb2dVertex
 10
11.81272
 20
13.259759
 30
0.0
 40
0.0
 41
0.0
  0
SEQEND
  5
177
100
AcDbEntity
  8
0
  0
POLYLINE
  5
178
100
AcDbEntity
  8
1
  6
CONTINUOUS
 62
   250
 48
0.1
100
AcDb2dPolyline
 66
     1
 10
0.0
 20
0.0
 30
0.0
 70
   128
  0
VERTEX
  5
179
100
AcDbEntity
  8
1
  6
CONTINUOUS
 62
   250
 48
0.1
100
AcDbVertex
100
AcDb2dVertex
 10
11.79272
 20
13.15976
 30
0.0
 40
0.0
 41
0.0
  0
VERTEX
  5
17A
100
AcDbEntity
  8
1
  6
CONTINUOUS
 62
   250
 48
0.1
100
AcDbVertex
100
AcDb2dVertex
 10
11.81272
 20
13.259759
 30
0.0
 40
0.0
 41
0.0
  0
VERTEX
  5
17B
100
AcDbEntity
  8
1
  6
CONTINUOUS
 62
   250
 48
0.1
100
AcDbVertex
100
AcDb2dVertex
 10
11.832721
 20
13.15976
 30
0.0
 40
0.0
 41
0.0
  0
SEQEND
  5
17C
100
AcDbEntity
  8
0
  0
TEXT
  5
17D
100
AcDbEntity
  8
1
 62
   250
 48
0.0
100
AcDbText
 10
11.86272
 20
12.22095
 30
0.0
 40
0.1
  1
1.730
 50
90.0
 72
     5
 11
11.86272
 21
12.56857
 31
0.0
210
0.0
220
0.0
230
1.0
100
AcDbText
  0
POLYLINE
  5
17E
100
AcDbEntity
  8
1
  6
CONTINUOUS
 62
   250
 48
0.1
100
AcDb2dPolyline
 66
     1
 10
0.0
 20
0.0
 30
0.0
 70
   128
  0
VERTEX
  5
17F
100
AcDbEntity
  8
1
  6
CONTINUOUS
 62
   250
 48
0.1
100
AcDbVertex
100
AcDb2dVertex
 10
14.09032
 20
10.729759
 30
0.0
 40
0.0
 41
0.0
  0
VERTEX
  5
180
100
AcDbEntity
  8
1
  6
CONTINUOUS
 62
   250
 48
0.1
100
AcDbVertex
100
AcDb2dVertex
 10
14.09032
 20
10.39116
 30
0.0
 40
0.0
 41
0.0
  0
SEQEND
  5
181
100
AcDbEntity
  8
0
  0
POLYLINE
  5
182
100
AcDbEntity
  8
1
  6
CONTINUOUS
 62
   250
 48
0.1
100
AcDb2dPolyline
 66
     1
 10
0.0
 20
0.0
 30
0.0
 70
   128
  0
VERTEX
  5
183
100
AcDbEntity
  8
1
  6
CONTINUOUS
 62
   250
 48
0.1
100
AcDbVertex
100
AcDb2dVertex
 10
14.735319
 20
10.729759
 30
0.0
 40
0.0
 41
0.0
  0
VERTEX
  5
184
100
AcDbEntity
  8
1
  6
CONTINUOUS
 62
   250
 48
0.1
100
AcDbVertex
100
AcDb2dVertex
 10
14.735319
 20
10.39116
 30
0.0
 40
0.0
 41
0.0
  0
SEQEND
  5
185
100
AcDbEntity
  8
0
  0
POLYLINE
  5
186
100
AcDbEntity
  8
1
  6
CONTINUOUS
 62
   250
 48
0.1
100
AcDb2dPolyline
 66
     1
 10
0.0
 20
0.0
 30
0.0
 70
   128
  0
VERTEX
  5
187
100
AcDbEntity
  8
1
  6
CONTINUOUS
 62
   250
 48
0.1
100
AcDbVertex
100
AcDb2dVertex
 10
14.171391
 20
10.44116
 30
0.0
 40
0.0
 41
0.0
  0
VERTEX
  5
188
100
AcDbEntity
  8
1
  6
CONTINUOUS
 62
   250
 48
0.1
100
AcDbVertex
100
AcDb2dVertex
 10
14.09032
 20
10.44116
 30
0.0
 40
0.0
 41
0.0
  0
SEQEND
  5
189
100
AcDbEntity
  8
0
  0
POLYLINE
  5
18A
100
AcDbEntity
  8
1
  6
CONTINUOUS
 62
   250
 48
0.1
100
AcDb2dPolyline
 66
     1
 10
0.0
 20
0.0
 30
0.0
 70
   128
  0
VERTEX
  5
18B
100
AcDbEntity
  8
1
  6
CONTINUOUS
 62
   250
 48
0.1
100
AcDbVertex
100
AcDb2dVertex
 10
14.190319
 20
10.421159
 30
0.0
 40
0.0
 41
0.0
  0
VERTEX
  5
18C
100
AcDbEntity
  8
1
  6
CONTINUOUS
 62
   250
 48
0.1
100
AcDbVertex
100
AcDb2dVertex
 10
14.09032
 20
10.44116
 30
0.0
 40
0.0
 41
0.0
  0
VERTEX
  5
18D
100
AcDbEntity
  8
1
  6
CONTINUOUS
 62
   250
 48
0.1
100
AcDbVertex
100
AcDb2dVertex
 10
14.190319
 20
10.46116
 30
0.0
 40
0.0
 41
0.0
  0
SEQEND
  5
18E
100
AcDbEntity
  8
0
  0
POLYLINE
  5
18F
100
AcDbEntity
  8
1
  6
CONTINUOUS
 62
   250
 48
0.1
100
AcDb2dPolyline
 66
     1
 10
0.0
 20
0.0
 30
0.0
 70
   128
  0
VERTEX
  5
190
100
AcDbEntity
  8
1
  6
CONTINUOUS
 62
   250
 48
0.1
100
AcDbVertex
100
AcDb2dVertex
 10
14.654248
 20
10.44116
 30
0.0
 40
0.0
 41
0.0
  0
VERTEX
  5
191
100
AcDbEntity
  8
1
  6
CONTINUOUS
 62
   250
 48
0.1
100
AcDbVertex
100
AcDb2dVertex
 10
14.735319
 20
10.44116
 30
0.0
 40
0.0
 41
0.0
  0
SEQEND
  5
192
100
AcDbEntity
  8
0
  0
POLYLINE
  5
193
100
AcDbEntity
  8
1
  6
CONTINUOUS
 62
   250
 48
0.1
100
AcDb2dPolyline
 66
     1
 10
0.0
 20
0.0
 30
0.0
 70
   128
  0
VERTEX
  5
194
100
AcDbEntity
  8
1
  6
CONTINUOUS
 62
   250
 48
0.1
100
AcDbVertex
100
AcDb2dVertex
 10
14.63532
 20
10.46116
 30
0.0
 40
0.0
 41
0.0
  0
VERTEX
  5
195
100
AcDbEntity
  8
1
  6
CONTINUOUS
 62
   250
 48
0.1
100
AcDbVertex
100
AcDb2dVertex
 10
14.735319
 20
10.44116
 30
0.0
 40
0.0
 41
0.0
  0
VERTEX
  5
196
100
AcDbEntity
  8
1
  6
CONTINUOUS
 62
   250
 48
0.1
100
AcDbVertex
100
AcDb2dVertex
 10
14.63532
 20
10.421159
 30
0.0
 40
0.0
 41
0.0
  0
SEQEND
  5
197
100
AcDbEntity
  8
0
  0
TEXT
  5
198
100
AcDbEntity
  8
1
 62
   250
 48
0.0
100
AcDbText
 10
14.221389
 20
10.39116
 30
0.0
 40
0.1
  1
0.645
 72
     5
 11
14.604247
 21
10.39116
 31
0.0
210
0.0
220
0.0
230
1.0
100
AcDbText
  0
POLYLINE
  5
199
100
AcDbEntity
  8
1
  6
CONTINUOUS
 62
   250
 48
0.1
100
AcDb2dPolyline
 66
     1
 10
0.0
 20
0.0
 30
0.0
 70
   128
  0
VERTEX
  5
19A
100
AcDbEntity
  8
1
  6
CONTINUOUS
 62
   250
 48
0.1
100
AcDbVertex
100
AcDb2dVertex
 10
14.735319
 20
10.729759
 30
0.0
 40
0.0
 41
0.0
  0
VERTEX
  5
19B
100
AcDbEntity
  8
1
  6
CONTINUOUS
 62
   250
 48
0.1
100
AcDbVertex
100
AcDb2dVertex
 10
14.735319
 20
10.39116
 30
0.0
 40
0.0
 41
0.0
  0
SEQEND
  5
19C
100
AcDbEntity
  8
0
  0
POLYLINE
  5
19D
100
AcDbEntity
  8
1
  6
CONTINUOUS
 62
   250
 48
0.1
100
AcDb2dPolyline
 66
     1
 10
0.0
 20
0.0
 30
0.0
 70
   128
  0
VERTEX
  5
19E
100
AcDbEntity
  8
1
  6
CONTINUOUS
 62
   250
 48
0.1
100
AcDbVertex
100
AcDb2dVertex
 10
14.969487
 20
10.44116
 30
0.0
 40
0.0
 41
0.0
  0
VERTEX
  5
19F
100
AcDbEntity
  8
1
  6
CONTINUOUS
 62
   250
 48
0.1
100
AcDbVertex
100
AcDb2dVertex
 10
14.735319
 20
10.44116
 30
0.0
 40
0.0
 41
0.0
  0
SEQEND
  5
1A0
100
AcDbEntity
  8
0
  0
POLYLINE
  5
1A1
100
AcDbEntity
  8
1
  6
CONTINUOUS
 62
   250
 48
0.1
100
AcDb2dPolyline
 66
     1
 10
0.0
 20
0.0
 30
0.0
 70
   128
  0
VERTEX
  5
1A2
100
AcDbEntity
  8
1
  6
CONTINUOUS
 62
   250
 48
0.1
100
AcDbVertex
100
AcDb2dVertex
 10
14.835319
 20
10.421159
 30
0.0
 40
0.0
 41
0.0
  0
VERTEX
  5
1A3
100
AcDbEntity
  8
1
  6
CONTINUOUS
 62
   250
 48
0.1
100
AcDbVertex
100
AcDb2dVertex
 10
14.735319
 20
10.44116
 30
0.0
 40
0.0
 41
0.0
  0
VERTEX
  5
1A4
100
AcDbEntity
  8
1
  6
CONTINUOUS
 62
   250
 48
0.1
100
AcDbVertex
100
AcDb2dVertex
 10
14.835319
 20
10.46116
 30
0.0
 40
0.0
 41
0.0
  0
SEQEND
  5
1A5
100
AcDbEntity
  8
0
  0
POLYLINE
  5
1A6
100
AcDbEntity
  8
1
  6
CONTINUOUS
 62
   250
 48
0.1
100
AcDb2dPolyline
 66
     1
 10
0.0
 20
0.0
 30
0.0
 70
   128
  0
VERTEX
  5
1A7
100
AcDbEntity
  8
1
  6
CONTINUOUS
 62
   250
 48
0.1
100
AcDbVertex
100
AcDb2dVertex
 10
15.416152
 20
10.44116
 30
0.0
 40
0.0
 41
0.0
  0
VERTEX
  5
1A8
100
AcDbEntity
  8
1
  6
CONTINUOUS
 62
   250
 48
0.1
100
AcDbVertex
100
AcDb2dVertex
 10
15.65032
 20
10.44116
 30
0.0
 40
0.0
 41
0.0
  0
SEQEND
  5
1A9
100
AcDbEntity
  8
0
  0
POLYLINE
  5
1AA
100
AcDbEntity
  8
1
  6
CONTINUOUS
 62
   250
 48
0.1
100
AcDb2dPolyline
 66
     1
 10
0.0
 20
0.0
 30
0.0
 70
   128
  0
VERTEX
  5
1AB
100
AcDbEntity
  8
1
  6
CONTINUOUS
 62
   250
 48
0.1
100
AcDbVertex
100
AcDb2dVertex
 10
15.550321
 20
10.46116
 30
0.0
 40
0.0
 41
0.0
  0
VERTEX
  5
1AC
100
AcDbEntity
  8
1
  6
CONTINUOUS
 62
   250
 48
0.1
100
AcDbVertex
100
AcDb2dVertex
 10
15.65032
 20
10.44116
 30
0.0
 40
0.0
 41
0.0
  0
VERTEX
  5
1AD
100
AcDbEntity
  8
1
  6
CONTINUOUS
 62
   250
 48
0.1
100
AcDbVertex
100
AcDb2dVertex
 10
15.550321
 20
10.421159
 30
0.0
 40
0.0
 41
0.0
  0
SEQEND
  5
1AE
100
AcDbEntity
  8
0
  0
TEXT
  5
1AF
100
AcDbEntity
  8
1
 62
   250
 48
0.0
100
AcDbText
 10
15.019485
 20
10.39116
 30
0.0
 40
0.1
  1
0.915
 72
     5
 11
15.366153
 21
10.39116
 31
0.0
210
0.0
220
0.0
230
1.0
100
AcDbText
  0
POLYLINE
  5
1B0
100
AcDbEntity
  8
1
  6
CONTINUOUS
 62
   250
 48
0.1
100
AcDb2dPolyline
 66
     1
 10
0.0
 20
0.0
 30
0.0
 70
   128
  0
VERTEX
  5
1B1
100
AcDbEntity
  8
1
  6
CONTINUOUS
 62
   250
 48
0.1
100
AcDbVertex
100
AcDb2dVertex
 10
14.09032
 20
10.729759
 30
0.0
 40
0.0
 41
0.0
  0
VERTEX
  5
1B2
100
AcDbEntity
  8
1
  6
CONTINUOUS
 62
   250
 48
0.1
100
AcDbVertex
100
AcDb2dVertex
 10
14.09032
 20
10.39116
 30
0.0
 40
0.0
 41
0.0
  0
SEQEND
  5
1B3
100
AcDbEntity
  8
0
  0
POLYLINE
  5
1B4
100
AcDbEntity
  8
1
  6
CONTINUOUS
 62
   250
 48
0.1
100
AcDb2dPolyline
 66
     1
 10
0.0
 20
0.0
 30
0.0
 70
   128
  0
VERTEX
  5
1B5
100
AcDbEntity
  8
1
  6
CONTINUOUS
 62
   250
 48
0.1
100
AcDbVertex
100
AcDb2dVertex
 10
13.378891
 20
10.44116
 30
0.0
 40
0.0
 41
0.0
  0
VERTEX
  5
1B6
100
AcDbEntity
  8
1
  6
CONTINUOUS
 62
   250
 48
0.1
100
AcDbVertex
100
AcDb2dVertex
 10
13.15032
 20
10.44116
 30
0.0
 40
0.0
 41
0.0
  0
SEQEND
  5
1B7
100
AcDbEntity
  8
0
  0
POLYLINE
  5
1B8
100
AcDbEntity
  8
1
  6
CONTINUOUS
 62
   250
 48
0.1
100
AcDb2dPolyline
 66
     1
 10
0.0
 20
0.0
 30
0.0
 70
   128
  0
VERTEX
  5
1B9
100
AcDbEntity
  8
1
  6
CONTINUOUS
 62
   250
 48
0.1
100
AcDbVertex
100
AcDb2dVertex
 10
13.250319
 20
10.421159
 30
0.0
 40
0.0
 41
0.0
  0
VERTEX
  5
1BA
100
AcDbEntity
  8
1
  6
CONTINUOUS
 62
   250
 48
0.1
100
AcDbVertex
100
AcDb2dVertex
 10
13.15032
 20
10.44116
 30
0.0
 40
0.0
 41
0.0
  0
VERTEX
  5
1BB
100
AcDbEntity
  8
1
  6
CONTINUOUS
 62
   250
 48
0.1
100
AcDbVertex
100
AcDb2dVertex
 10
13.250319
 20
10.46116
 30
0.0
 40
0.0
 41
0.0
  0
SEQEND
  5
1BC
100
AcDbEntity
  8
0
  0
POLYLINE
  5
1BD
100
AcDbEntity
  8
1
  6
CONTINUOUS
 62
   250
 48
0.1
100
AcDb2dPolyline
 66
     1
 10
0.0
 20
0.0
 30
0.0
 70
   128
  0
VERTEX
  5
1BE
100
AcDbEntity
  8
1
  6
CONTINUOUS
 62
   250
 48
0.1
100
AcDbVertex
100
AcDb2dVertex
 10
13.861749
 20
10.44116
 30
0.0
 40
0.0
 41
0.0
  0
VERTEX
  5
1BF
100
AcDbEntity
  8
1
  6
CONTINUOUS
 62
   250
 48
0.1
100
AcDbVertex
100
AcDb2dVertex
 10
14.09032
 20
10.44116
 30
0.0
 40
0.0
 41
0.0
  0
SEQEND
  5
1C0
100
AcDbEntity
  8
0
  0
POLYLINE
  5
1C1
100
AcDbEntity
  8
1
  6
CONTINUOUS
 62
   250
 48
0.1
100
AcDb2dPolyline
 66
     1
 10
0.0
 20
0.0
 30
0.0
 70
   128
  0
VERTEX
  5
1C2
100
AcDbEntity
  8
1
  6
CONTINUOUS
 62
   250
 48
0.1
100
AcDbVertex
100
AcDb2dVertex
 10
13.99032
 20
10.46116
 30
0.0
 40
0.0
 41
0.0
  0
VERTEX
  5
1C3
100
AcDbEntity
  8
1
  6
CONTINUOUS
 62
   250
 48
0.1
100
AcDbVertex
100
AcDb2dVertex
 10
14.09032
 20
10.44116
 30
0.0
 40
0.0
 41
0.0
  0
VERTEX
  5
1C4
100
AcDbEntity
  8
1
  6
CONTINUOUS
 62
   250
 48
0.1
100
AcDbVertex
100
AcDb2dVertex
 10
13.99032
 20
10.421159
 30
0.0
 40
0.0
 41
0.0
  0
SEQEND
  5
1C5
100
AcDbEntity
  8
0
  0
TEXT
  5
1C6
100
AcDbEntity
  8
1
 62
   250
 48
0.0
100
AcDbText
 10
13.428891
 20
10.39116
 30
0.0
 40
0.1
  1
0.940
 72
     5
 11
13.811748
 21
10.39116
 31
0.0
210
0.0
220
0.0
230
1.0
100
AcDbText
  0
POLYLINE
  5
1C7
100
AcDbEntity
  8
1
  6
CONTINUOUS
 62
   250
 48
0.1
100
AcDb2dPolyline
 66
     1
 10
0.0
 20
0.0
 30
0.0
 70
   128
  0
VERTEX
  5
1C8
100
AcDbEntity
  8
1
  6
CONTINUOUS
 62
   250
 48
0.1
100
AcDbVertex
100
AcDb2dVertex
 10
12.05032
 20
13.15976
 30
0.0
 40
0.0
 41
0.0
  0
VERTEX
  5
1C9
100
AcDbEntity
  8
1
  6
CONTINUOUS
 62
   250
 48
0.1
100
AcDbVertex
100
AcDb2dVertex
 10
12.05032
 20
9.922201
 30
0.0
 40
0.0
 41
0.0
  0
SEQEND
  5
1CA
100
AcDbEntity
  8
0
  0
POLYLINE
  5
1CB
100
AcDbEntity
  8
1
  6
CONTINUOUS
 62
   250
 48
0.1
100
AcDb2dPolyline
 66
     1
 10
0.0
 20
0.0
 30
0.0
 70
   128
  0
VERTEX
  5
1CC
100
AcDbEntity
  8
1
  6
CONTINUOUS
 62
   250
 48
0.1
100
AcDbVertex
100
AcDb2dVertex
 10
12.39032
 20
9.9722
 30
0.0
 40
0.0
 41
0.0
  0
VERTEX
  5
1CD
100
AcDbEntity
  8
1
  6
CONTINUOUS
 62
   250
 48
0.1
100
AcDbVertex
100
AcDb2dVertex
 10
12.05032
 20
9.9722
 30
0.0
 40
0.0
 41
0.0
  0
SEQEND
  5
1CE
100
AcDbEntity
  8
0
  0
POLYLINE
  5
1CF
100
AcDbEntity
  8
1
  6
CONTINUOUS
 62
   250
 48
0.1
100
AcDb2dPolyline
 66
     1
 10
0.0
 20
0.0
 30
0.0
 70
   128
  0
VERTEX
  5
1D0
100
AcDbEntity
  8
1
  6
CONTINUOUS
 62
   250
 48
0.1
100
AcDbVertex
100
AcDb2dVertex
 10
12.15032
 20
9.9522
 30
0.0
 40
0.0
 41
0.0
  0
VERTEX
  5
1D1
100
AcDbEntity
  8
1
  6
CONTINUOUS
 62
   250
 48
0.1
100
AcDbVertex
100
AcDb2dVertex
 10
12.05032
 20
9.9722
 30
0.0
 40
0.0
 41
0.0
  0
VERTEX
  5
1D2
100
AcDbEntity
  8
1
  6
CONTINUOUS
 62
   250
 48
0.1
100
AcDbVertex
100
AcDb2dVertex
 10
12.15032
 20
9.992201
 30
0.0
 40
0.0
 41
0.0
  0
SEQEND
  5
1D3
100
AcDbEntity
  8
0
  0
POLYLINE
  5
1D4
100
AcDbEntity
  8
1
  6
CONTINUOUS
 62
   250
 48
0.1
100
AcDb2dPolyline
 66
     1
 10
0.0
 20
0.0
 30
0.0
 70
   128
  0
VERTEX
  5
1D5
100
AcDbEntity
  8
1
  6
CONTINUOUS
 62
   250
 48
0.1
100
AcDbVertex
100
AcDb2dVertex
 10
12.81032
 20
9.9722
 30
0.0
 40
0.0
 41
0.0
  0
VERTEX
  5
1D6
100
AcDbEntity
  8
1
  6
CONTINUOUS
 62
   250
 48
0.1
100
AcDbVertex
100
AcDb2dVertex
 10
13.15032
 20
9.9722
 30
0.0
 40
0.0
 41
0.0
  0
SEQEND
  5
1D7
100
AcDbEntity
  8
0
  0
POLYLINE
  5
1D8
100
AcDbEntity
  8
1
  6
CONTINUOUS
 62
   250
 48
0.1
100
AcDb2dPolyline
 66
     1
 10
0.0
 20
0.0
 30
0.0
 70
   128
  0
VERTEX
  5
1D9
100
AcDbEntity
  8
1
  6
CONTINUOUS
 62
   250
 48
0.1
100
AcDbVertex
100
AcDb2dVertex
 10
13.050321
 20
9.992201
 30
0.0
 40
0.0
 41
0.0
  0
VERTEX
  5
1DA
100
AcDbEntity
  8
1
  6
CONTINUOUS
 62
   250
 48
0.1
100
AcDbVertex
100
AcDb2dVertex
 10
13.15032
 20
9.9722
 30
0.0
 40
0.0
 41
0.0
  0
VERTEX
  5
1DB
100
AcDbEntity
  8
1
  6
CONTINUOUS
 62
   250
 48
0.1
100
AcDbVertex
100
AcDb2dVertex
 10
13.050321
 20
9.9522
 30
0.0
 40
0.0
 41
0.0
  0
SEQEND
  5
1DC
100
AcDbEntity
  8
0
  0
TEXT
  5
1DD
100
AcDbEntity
  8
1
 62
   250
 48
0.0
100
AcDbText
 10
12.440321
 20
9.922201
 30
0.0
 40
0.1
  1
1.100
 72
     5
 11
12.760321
 21
9.922201
 31
0.0
210
0.0
220
0.0
230
1.0
100
AcDbText
  0
POLYLINE
  5
1DE
100
AcDbEntity
  8
1
  6
CONTINUOUS
 62
   250
 48
0.1
100
AcDb2dPolyline
 66
     1
 10
0.0
 20
0.0
 30
0.0
 70
   128
  0
VERTEX
  5
1DF
100
AcDbEntity
  8
1
  6
CONTINUOUS
 62
   250
 48
0.1
100
AcDbVertex
100
AcDb2dVertex
 10
13.15032
 20
10.729759
 30
0.0
 40
0.0
 41
0.0
  0
VERTEX
  5
1E0
100
AcDbEntity
  8
1
  6
CONTINUOUS
 62
   250
 48
0.1
100
AcDbVertex
100
AcDb2dVertex
 10
13.15032
 20
9.922201
 30
0.0
 40
0.0
 41
0.0
  0
SEQEND
  5
1E1
100
AcDbEntity
  8
0
  0
POLYLINE
  5
1E2
100
AcDbEntity
  8
1
  6
CONTINUOUS
 62
   250
 48
0.1
100
AcDb2dPolyline
 66
     1
 10
0.0
 20
0.0
 30
0.0
 70
   128
  0
VERTEX
  5
1E3
100
AcDbEntity
  8
1
  6
CONTINUOUS
 62
   250
 48
0.1
100
AcDbVertex
100
AcDb2dVertex
 10
14.161749
 20
9.9722
 30
0.0
 40
0.0
 41
0.0
  0
VERTEX
  5
1E4
100
AcDbEntity
  8
1
  6
CONTINUOUS
 62
   250
 48
0.1
100
AcDbVertex
100
AcDb2dVertex
 10
13.15032
 20
9.9722
 30
0.0
 40
0.0
 41
0.0
  0
SEQEND
  5
1E5
100
AcDbEntity
  8
0
  0
POLYLINE
  5
1E6
100
AcDbEntity
  8
1
  6
CONTINUOUS
 62
   250
 48
0.1
100
AcDb2dPolyline
 66
     1
 10
0.0
 20
0.0
 30
0.0
 70
   128
  0
VERTEX
  5
1E7
100
AcDbEntity
  8
1
  6
CONTINUOUS
 62
   250
 48
0.1
100
AcDbVertex
100
AcDb2dVertex
 10
13.250319
 20
9.9522
 30
0.0
 40
0.0
 41
0.0
  0
VERTEX
  5
1E8
100
AcDbEntity
  8
1
  6
CONTINUOUS
 62
   250
 48
0.1
100
AcDbVertex
100
AcDb2dVertex
 10
13.15032
 20
9.9722
 30
0.0
 40
0.0
 41
0.0
  0
VERTEX
  5
1E9
100
AcDbEntity
  8
1
  6
CONTINUOUS
 62
   250
 48
0.1
100
AcDbVertex
100
AcDb2dVertex
 10
13.250319
 20
9.992201
 30
0.0
 40
0.0
 41
0.0
  0
SEQEND
  5
1EA
100
AcDbEntity
  8
0
  0
POLYLINE
  5
1EB
100
AcDbEntity
  8
1
  6
CONTINUOUS
 62
   250
 48
0.1
100
AcDb2dPolyline
 66
     1
 10
0.0
 20
0.0
 30
0.0
 70
   128
  0
VERTEX
  5
1EC
100
AcDbEntity
  8
1
  6
CONTINUOUS
 62
   250
 48
0.1
100
AcDbVertex
100
AcDb2dVertex
 10
14.638891
 20
9.9722
 30
0.0
 40
0.0
 41
0.0
  0
VERTEX
  5
1ED
100
AcDbEntity
  8
1
  6
CONTINUOUS
 62
   250
 48
0.1
100
AcDbVertex
100
AcDb2dVertex
 10
15.65032
 20
9.9722
 30
0.0
 40
0.0
 41
0.0
  0
SEQEND
  5
1EE
100
AcDbEntity
  8
0
  0
POLYLINE
  5
1EF
100
AcDbEntity
  8
1
  6
CONTINUOUS
 62
   250
 48
0.1
100
AcDb2dPolyline
 66
     1
 10
0.0
 20
0.0
 30
0.0
 70
   128
  0
VERTEX
  5
1F0
100
AcDbEntity
  8
1
  6
CONTINUOUS
 62
   250
 48
0.1
100
AcDbVertex
100
AcDb2dVertex
 10
15.550321
 20
9.992201
 30
0.0
 40
0.0
 41
0.0
  0
VERTEX
  5
1F1
100
AcDbEntity
  8
1
  6
CONTINUOUS
 62
   250
 48
0.1
100
AcDbVertex
100
AcDb2dVertex
 10
15.65032
 20
9.9722
 30
0.0
 40
0.0
 41
0.0
  0
VERTEX
  5
1F2
100
AcDbEntity
  8
1
  6
CONTINUOUS
 62
   250
 48
0.1
100
AcDbVertex
100
AcDb2dVertex
 10
15.550321
 20
9.9522
 30
0.0
 40
0.0
 41
0.0
  0
SEQEND
  5
1F3
100
AcDbEntity
  8
0
  0
TEXT
  5
1F4
100
AcDbEntity
  8
1
 62
   250
 48
0.0
100
AcDbText
 10
14.211748
 20
9.922201
 30
0.0
 40
0.1
  1
2.500
 72
     5
 11
14.588892
 21
9.922201
 31
0.0
210
0.0
220
0.0
230
1.0
100
AcDbText
  0
POLYLINE
  5
1F5
100
AcDbEntity
  8
1
  6
CONTINUOUS
 62
   250
 48
0.1
100
AcDb2dPolyline
 66
     1
 10
0.0
 20
0.0
 30
0.0
 70
   128
  0
VERTEX
  5
1F6
100
AcDbEntity
  8
1
  6
CONTINUOUS
 62
   250
 48
0.1
100
AcDbVertex
100
AcDb2dVertex
 10
15.65032
 20
10.729759
 30
0.0
 40
0.0
 41
0.0
  0
VERTEX
  5
1F7
100
AcDbEntity
  8
1
  6
CONTINUOUS
 62
   250
 48
0.1
100
AcDbVertex
100
AcDb2dVertex
 10
15.65032
 20
9.922201
 30
0.0
 40
0.0
 41
0.0
  0
SEQEND
  5
1F8
100
AcDbEntity
  8
0
  0
POLYLINE
  5
1F9
100
AcDbEntity
  8
1
  6
CONTINUOUS
 62
   250
 48
0.1
100
AcDb2dPolyline
 66
     1
 10
0.0
 20
0.0
 30
0.0
 70
   128
  0
VERTEX
  5
1FA
100
AcDbEntity
  8
1
  6
CONTINUOUS
 62
   250
 48
0.1
100
AcDbVertex
100
AcDb2dVertex
 10
16.90032
 20
13.109762
 30
0.0
 40
0.0
 41
0.0
  0
VERTEX
  5
1FB
100
AcDbEntity
  8
1
  6
CONTINUOUS
 62
   250
 48
0.1
100
AcDbVertex
100
AcDb2dVertex
 10
16.90032
 20
9.922201
 30
0.0
 40
0.0
 41
0.0
  0
SEQEND
  5
1FC
100
AcDbEntity
  8
0
  0
POLYLINE
  5
1FD
100
AcDbEntity
  8
1
  6
CONTINUOUS
 62
   250
 48
0.1
100
AcDb2dPolyline
 66
     1
 10
0.0
 20
0.0
 30
0.0
 70
   128
  0
VERTEX
  5
1FE
100
AcDbEntity
  8
1
  6
CONTINUOUS
 62
   250
 48
0.1
100
AcDbVertex
100
AcDb2dVertex
 10
16.050083
 20
9.9722
 30
0.0
 40
0.0
 41
0.0
  0
VERTEX
  5
1FF
100
AcDbEntity
  8
1
  6
CONTINUOUS
 62
   250
 48
0.1
100
AcDbVertex
100
AcDb2dVertex
 10
15.65032
 20
9.9722
 30
0.0
 40
0.0
 41
0.0
  0
SEQEND
  5
200
100
AcDbEntity
  8
0
  0
POLYLINE
  5
201
100
AcDbEntity
  8
1
  6
CONTINUOUS
 62
   250
 48
0.1
100
AcDb2dPolyline
 66
     1
 10
0.0
 20
0.0
 30
0.0
 70
   128
  0
VERTEX
  5
202
100
AcDbEntity
  8
1
  6
CONTINUOUS
 62
   250
 48
0.1
100
AcDbVertex
100
AcDb2dVertex
 10
15.750319
 20
9.9522
 30
0.0
 40
0.0
 41
0.0
  0
VERTEX
  5
203
100
AcDbEntity
  8
1
  6
CONTINUOUS
 62
   250
 48
0.1
100
AcDbVertex
100
AcDb2dVertex
 10
15.65032
 20
9.9722
 30
0.0
 40
0.0
 41
0.0
  0
VERTEX
  5
204
100
AcDbEntity
  8
1
  6
CONTINUOUS
 62
   250
 48
0.1
100
AcDbVertex
100
AcDb2dVertex
 10
15.750319
 20
9.992201
 30
0.0
 40
0.0
 41
0.0
  0
SEQEND
  5
205
100
AcDbEntity
  8
0
  0
POLYLINE
  5
206
100
AcDbEntity
  8
1
  6
CONTINUOUS
 62
   250
 48
0.1
100
AcDb2dPolyline
 66
     1
 10
0.0
 20
0.0
 30
0.0
 70
   128
  0
VERTEX
  5
207
100
AcDbEntity
  8
1
  6
CONTINUOUS
 62
   250
 48
0.1
100
AcDbVertex
100
AcDb2dVertex
 10
16.500557
 20
9.9722
 30
0.0
 40
0.0
 41
0.0
  0
VERTEX
  5
208
100
AcDbEntity
  8
1
  6
CONTINUOUS
 62
   250
 48
0.1
100
AcDbVertex
100
AcDb2dVertex
 10
16.90032
 20
9.9722
 30
0.0
 40
0.0
 41
0.0
  0
SEQEND
  5
209
100
AcDbEntity
  8
0
  0
POLYLINE
  5
20A
100
AcDbEntity
  8
1
  6
CONTINUOUS
 62
   250
 48
0.1
100
AcDb2dPolyline
 66
     1
 10
0.0
 20
0.0
 30
0.0
 70
   128
  0
VERTEX
  5
20B
100
AcDbEntity
  8
1
  6
CONTINUOUS
 62
   250
 48
0.1
100
AcDbVertex
100
AcDb2dVertex
 10
16.800321
 20
9.992201
 30
0.0
 40
0.0
 41
0.0
  0
VERTEX
  5
20C
100
AcDbEntity
  8
1
  6
CONTINUOUS
 62
   250
 48
0.1
100
AcDbVertex
100
AcDb2dVertex
 10
16.90032
 20
9.9722
 30
0.0
 40
0.0
 41
0.0
  0
VERTEX
  5
20D
100
AcDbEntity
  8
1
  6
CONTINUOUS
 62
   250
 48
0.1
100
AcDbVertex
100
AcDb2dVertex
 10
16.800321
 20
9.9522
 30
0.0
 40
0.0
 41
0.0
  0
SEQEND
  5
20E
100
AcDbEntity
  8
0
  0
TEXT
  5
20F
100
AcDbEntity
  8
1
 62
   250
 48
0.0
100
AcDbText
 10
16.100082
 20
9.922201
 30
0.0
 40
0.1
  1
1.250
 72
     5
 11
16.450559
 21
9.922201
 31
0.0
210
0.0
220
0.0
230
1.0
100
AcDbText
  0
POLYLINE
  5
210
100
AcDbEntity
  8
1
  6
CONTINUOUS
 62
   250
 48
0.1
100
AcDb2dPolyline
 66
     1
 10
0.0
 20
0.0
 30
0.0
 70
   128
  0
VERTEX
  5
211
100
AcDbEntity
  8
1
  6
CONTINUOUS
 62
   250
 48
0.1
100
AcDbVertex
100
AcDb2dVertex
 10
15.750319
 20
10.82976
 30
0.0
 40
0.0
 41
0.0
  0
VERTEX
  5
212
100
AcDbEntity
  8
1
  6
CONTINUOUS
 62
   250
 48
0.1
100
AcDbVertex
100
AcDb2dVertex
 10
16.61132
 20
10.82976
 30
0.0
 40
0.0
 41
0.0
  0
SEQEND
  5
213
100
AcDbEntity
  8
0
  0
POLYLINE
  5
214
100
AcDbEntity
  8
1
  6
CONTINUOUS
 62
   250
 48
0.1
100
AcDb2dPolyline
 66
     1
 10
0.0
 20
0.0
 30
0.0
 70
   128
  0
VERTEX
  5
215
100
AcDbEntity
  8
1
  6
CONTINUOUS
 62
   250
 48
0.1
100
AcDbVertex
100
AcDb2dVertex
 10
16.561321
 20
11.781189
 30
0.0
 40
0.0
 41
0.0
  0
VERTEX
  5
216
100
AcDbEntity
  8
1
  6
CONTINUOUS
 62
   250
 48
0.1
100
AcDbVertex
100
AcDb2dVertex
 10
16.561321
 20
10.82976
 30
0.0
 40
0.0
 41
0.0
  0
SEQEND
  5
217
100
AcDbEntity
  8
0
  0
POLYLINE
  5
218
100
AcDbEntity
  8
1
  6
CONTINUOUS
 62
   250
 48
0.1
100
AcDb2dPolyline
 66
     1
 10
0.0
 20
0.0
 30
0.0
 70
   128
  0
VERTEX
  5
219
100
AcDbEntity
  8
1
  6
CONTINUOUS
 62
   250
 48
0.1
100
AcDbVertex
100
AcDb2dVertex
 10
16.58132
 20
10.92976
 30
0.0
 40
0.0
 41
0.0
  0
VERTEX
  5
21A
100
AcDbEntity
  8
1
  6
CONTINUOUS
 62
   250
 48
0.1
100
AcDbVertex
100
AcDb2dVertex
 10
16.561321
 20
10.82976
 30
0.0
 40
0.0
 41
0.0
  0
VERTEX
  5
21B
100
AcDbEntity
  8
1
  6
CONTINUOUS
 62
   250
 48
0.1
100
AcDbVertex
100
AcDb2dVertex
 10
16.541321
 20
10.92976
 30
0.0
 40
0.0
 41
0.0
  0
SEQEND
  5
21C
100
AcDbEntity
  8
0
  0
POLYLINE
  5
21D
100
AcDbEntity
  8
1
  6
CONTINUOUS
 62
   250
 48
0.1
100
AcDb2dPolyline
 66
     1
 10
0.0
 20
0.0
 30
0.0
 70
   128
  0
VERTEX
  5
21E
100
AcDbEntity
  8
1
  6
CONTINUOUS
 62
   250
 48
0.1
100
AcDbVertex
100
AcDb2dVertex
 10
16.561321
 20
12.258331
 30
0.0
 40
0.0
 41
0.0
  0
VERTEX
  5
21F
100
AcDbEntity
  8
1
  6
CONTINUOUS
 62
   250
 48
0.1
100
AcDbVertex
100
AcDb2dVertex
 10
16.561321
 20
13.209761
 30
0.0
 40
0.0
 41
0.0
  0
SEQEND
  5
220
100
AcDbEntity
  8
0
  0
POLYLINE
  5
221
100
AcDbEntity
  8
1
  6
CONTINUOUS
 62
   250
 48
0.1
100
AcDb2dPolyline
 66
     1
 10
0.0
 20
0.0
 30
0.0
 70
   128
  0
VERTEX
  5
222
100
AcDbEntity
  8
1
  6
CONTINUOUS
 62
   250
 48
0.1
100
AcDbVertex
100
AcDb2dVertex
 10
16.541321
 20
13.109762
 30
0.0
 40
0.0
 41
0.0
  0
VERTEX
  5
223
100
AcDbEntity
  8
1
  6
CONTINUOUS
 62
   250
 48
0.1
100
AcDbVertex
100
AcDb2dVertex
 10
16.561321
 20
13.209761
 30
0.0
 40
0.0
 41
0.0
  0
VERTEX
  5
224
100
AcDbEntity
  8
1
  6
CONTINUOUS
 62
   250
 48
0.1
100
AcDbVertex
100
AcDb2dVertex
 10
16.58132
 20
13.109762
 30
0.0
 40
0.0
 41
0.0
  0
SEQEND
  5
225
100
AcDbEntity
  8
0
  0
TEXT
  5
226
100
AcDbEntity
  8
1
 62
   250
 48
0.0
100
AcDbText
 10
16.61132
 20
11.831188
 30
0.0
 40
0.099999
  1
2.380
 50
90.0
 72
     5
 11
16.61132
 21
12.208331
 31
0.0
210
0.0
220
0.0
230
1.0
100
AcDbText
  0
POLYLINE
  5
227
100
AcDbEntity
  8
1
  6
CONTINUOUS
 62
   250
 48
0.1
100
AcDb2dPolyline
 66
     1
 10
0.0
 20
0.0
 30
0.0
 70
   128
  0
VERTEX
  5
228
100
AcDbEntity
  8
1
  6
CONTINUOUS
 62
   250
 48
0.1
100
AcDbVertex
100
AcDb2dVertex
 10
16.11932
 20
11.388927
 30
0.0
 40
0.0
 41
0.0
  0
VERTEX
  5
229
100
AcDbEntity
  8
1
  6
CONTINUOUS
 62
   250
 48
0.1
100
AcDbVertex
100
AcDb2dVertex
 10
16.11932
 20
10.82976
 30
0.0
 40
0.0
 41
0.0
  0
SEQEND
  5
22A
100
AcDbEntity
  8
0
  0
POLYLINE
  5
22B
100
AcDbEntity
  8
1
  6
CONTINUOUS
 62
   250
 48
0.1
100
AcDb2dPolyline
 66
     1
 10
0.0
 20
0.0
 30
0.0
 70
   128
  0
VERTEX
  5
22C
100
AcDbEntity
  8
1
  6
CONTINUOUS
 62
   250
 48
0.1
100
AcDbVertex
100
AcDb2dVertex
 10
16.13932
 20
10.92976
 30
0.0
 40
0.0
 41
0.0
  0
VERTEX
  5
22D
100
AcDbEntity
  8
1
  6
CONTINUOUS
 62
   250
 48
0.1
100
AcDbVertex
100
AcDb2dVertex
 10
16.11932
 20
10.82976
 30
0.0
 40
0.0
 41
0.0
  0
VERTEX
  5
22E
100
AcDbEntity
  8
1
  6
CONTINUOUS
 62
   250
 48
0.1
100
AcDbVertex
100
AcDb2dVertex
 10
16.099321
 20
10.92976
 30
0.0
 40
0.0
 41
0.0
  0
SEQEND
  5
22F
100
AcDbEntity
  8
0
  0
POLYLINE
  5
230
100
AcDbEntity
  8
1
  6
CONTINUOUS
 62
   250
 48
0.1
100
AcDb2dPolyline
 66
     1
 10
0.0
 20
0.0
 30
0.0
 70
   128
  0
VERTEX
  5
231
100
AcDbEntity
  8
1
  6
CONTINUOUS
 62
   250
 48
0.1
100
AcDbVertex
100
AcDb2dVertex
 10
16.11932
 20
11.835593
 30
0.0
 40
0.0
 41
0.0
  0
VERTEX
  5
232
100
AcDbEntity
  8
1
  6
CONTINUOUS
 62
   250
 48
0.1
100
AcDbVertex
100
AcDb2dVertex
 10
16.11932
 20
12.39476
 30
0.0
 40
0.0
 41
0.0
  0
SEQEND
  5
233
100
AcDbEntity
  8
0
  0
POLYLINE
  5
234
100
AcDbEntity
  8
1
  6
CONTINUOUS
 62
   250
 48
0.1
100
AcDb2dPolyline
 66
     1
 10
0.0
 20
0.0
 30
0.0
 70
   128
  0
VERTEX
  5
235
100
AcDbEntity
  8
1
  6
CONTINUOUS
 62
   250
 48
0.1
100
AcDbVertex
100
AcDb2dVertex
 10
16.099321
 20
12.29476
 30
0.0
 40
0.0
 41
0.0
  0
VERTEX
  5
236
100
AcDbEntity
  8
1
  6
CONTINUOUS
 62
   250
 48
0.1
100
AcDbVertex
100
AcDb2dVertex
 10
16.11932
 20
12.39476
 30
0.0
 40
0.0
 41
0.0
  0
VERTEX
  5
237
100
AcDbEntity
  8
1
  6
CONTINUOUS
 62
   250
 48
0.1
100
AcDbVertex
100
AcDb2dVertex
 10
16.13932
 20
12.29476
 30
0.0
 40
0.0
 41
0.0
  0
SEQEND
  5
238
100
AcDbEntity
  8
0
  0
TEXT
  5
239
100
AcDbEntity
  8
1
 62
   250
 48
0.0
100
AcDbText
 10
16.16932
 20
11.438926
 30
0.0
 40
0.099999
  1
1.565
 50
90.0
 72
     5
 11
16.16932
 21
11.785593
 31
0.0
210
0.0
220
0.0
230
1.0
100
AcDbText
  0
POLYLINE
  5
23A
100
AcDbEntity
  8
1
  6
CONTINUOUS
 62
   250
 48
0.1
100
AcDb2dPolyline
 66
     1
 10
0.0
 20
0.0
 30
0.0
 70
   128
  0
VERTEX
  5
23B
100
AcDbEntity
  8
1
  6
CONTINUOUS
 62
   250
 48
0.1
100
AcDbVertex
100
AcDb2dVertex
 10
17.67032
 20
10.72976
 30
0.0
 40
0.0
 41
0.0
  0
VERTEX
  5
23C
100
AcDbEntity
  8
1
  6
CONTINUOUS
 62
   250
 48
0.1
100
AcDbVertex
100
AcDb2dVertex
 10
17.67032
 20
9.922201
 30
0.0
 40
0.0
 41
0.0
  0
SEQEND
  5
23D
100
AcDbEntity
  8
0
  0
POLYLINE
  5
23E
100
AcDbEntity
  8
1
  6
CONTINUOUS
 62
   250
 48
0.1
100
AcDb2dPolyline
 66
     1
 10
0.0
 20
0.0
 30
0.0
 70
   128
  0
VERTEX
  5
23F
100
AcDbEntity
  8
1
  6
CONTINUOUS
 62
   250
 48
0.1
100
AcDbVertex
100
AcDb2dVertex
 10
19.40032
 20
10.72976
 30
0.0
 40
0.0
 41
0.0
  0
VERTEX
  5
240
100
AcDbEntity
  8
1
  6
CONTINUOUS
 62
   250
 48
0.1
100
AcDbVertex
100
AcDb2dVertex
 10
19.40032
 20
9.922201
 30
0.0
 40
0.0
 41
0.0
  0
SEQEND
  5
241
100
AcDbEntity
  8
0
  0
POLYLINE
  5
242
100
AcDbEntity
  8
1
  6
CONTINUOUS
 62
   250
 48
0.1
100
AcDb2dPolyline
 66
     1
 10
0.0
 20
0.0
 30
0.0
 70
   128
  0
VERTEX
  5
243
100
AcDbEntity
  8
1
  6
CONTINUOUS
 62
   250
 48
0.1
100
AcDbVertex
100
AcDb2dVertex
 10
18.31151
 20
9.9722
 30
0.0
 40
0.0
 41
0.0
  0
VERTEX
  5
244
100
AcDbEntity
  8
1
  6
CONTINUOUS
 62
   250
 48
0.1
100
AcDbVertex
100
AcDb2dVertex
 10
17.67032
 20
9.9722
 30
0.0
 40
0.0
 41
0.0
  0
SEQEND
  5
245
100
AcDbEntity
  8
0
  0
POLYLINE
  5
246
100
AcDbEntity
  8
1
  6
CONTINUOUS
 62
   250
 48
0.1
100
AcDb2dPolyline
 66
     1
 10
0.0
 20
0.0
 30
0.0
 70
   128
  0
VERTEX
  5
247
100
AcDbEntity
  8
1
  6
CONTINUOUS
 62
   250
 48
0.1
100
AcDbVertex
100
AcDb2dVertex
 10
17.770319
 20
9.9522
 30
0.0
 40
0.0
 41
0.0
  0
VERTEX
  5
248
100
AcDbEntity
  8
1
  6
CONTINUOUS
 62
   250
 48
0.1
100
AcDbVertex
100
AcDb2dVertex
 10
17.67032
 20
9.9722
 30
0.0
 40
0.0
 41
0.0
  0
VERTEX
  5
249
100
AcDbEntity
  8
1
  6
CONTINUOUS
 62
   250
 48
0.1
100
AcDbVertex
100
AcDb2dVertex
 10
17.770319
 20
9.992201
 30
0.0
 40
0.0
 41
0.0
  0
SEQEND
  5
24A
100
AcDbEntity
  8
0
  0
POLYLINE
  5
24B
100
AcDbEntity
  8
1
  6
CONTINUOUS
 62
   250
 48
0.1
100
AcDb2dPolyline
 66
     1
 10
0.0
 20
0.0
 30
0.0
 70
   128
  0
VERTEX
  5
24C
100
AcDbEntity
  8
1
  6
CONTINUOUS
 62
   250
 48
0.1
100
AcDbVertex
100
AcDb2dVertex
 10
18.75913
 20
9.9722
 30
0.0
 40
0.0
 41
0.0
  0
VERTEX
  5
24D
100
AcDbEntity
  8
1
  6
CONTINUOUS
 62
   250
 48
0.1
100
AcDbVertex
100
AcDb2dVertex
 10
19.40032
 20
9.9722
 30
0.0
 40
0.0
 41
0.0
  0
SEQEND
  5
24E
100
AcDbEntity
  8
0
  0
POLYLINE
  5
24F
100
AcDbEntity
  8
1
  6
CONTINUOUS
 62
   250
 48
0.1
100
AcDb2dPolyline
 66
     1
 10
0.0
 20
0.0
 30
0.0
 70
   128
  0
VERTEX
  5
250
100
AcDbEntity
  8
1
  6
CONTINUOUS
 62
   250
 48
0.1
100
AcDbVertex
100
AcDb2dVertex
 10
19.300321
 20
9.992201
 30
0.0
 40
0.0
 41
0.0
  0
VERTEX
  5
251
100
AcDbEntity
  8
1
  6
CONTINUOUS
 62
   250
 48
0.1
100
AcDbVertex
100
AcDb2dVertex
 10
19.40032
 20
9.9722
 30
0.0
 40
0.0
 41
0.0
  0
VERTEX
  5
252
100
AcDbEntity
  8
1
  6
CONTINUOUS
 62
   250
 48
0.1
100
AcDbVertex
100
AcDb2dVertex
 10
19.300321
 20
9.9522
 30
0.0
 40
0.0
 41
0.0
  0
SEQEND
  5
253
100
AcDbEntity
  8
0
  0
TEXT
  5
254
100
AcDbEntity
  8
1
 62
   250
 48
0.0
100
AcDbText
 10
18.361509
 20
9.922201
 30
0.0
 40
0.1
  1
1.730
 72
     5
 11
18.709129
 21
9.922201
 31
0.0
210
0.0
220
0.0
230
1.0
100
AcDbText
  0
POLYLINE
  5
255
100
AcDbEntity
  8
1
  6
CONTINUOUS
 62
   250
 48
0.1
100
AcDb2dPolyline
 66
     1
 10
0.0
 20
0.0
 30
0.0
 70
   128
  0
VERTEX
  5
256
100
AcDbEntity
  8
1
  6
CONTINUOUS
 62
   250
 48
0.1
100
AcDbVertex
100
AcDb2dVertex
 10
17.90032
 20
14.65976
 30
0.0
 40
0.0
 41
0.0
  0
VERTEX
  5
257
100
AcDbEntity
  8
1
  6
CONTINUOUS
 62
   250
 48
0.1
100
AcDbVertex
100
AcDb2dVertex
 10
17.90032
 20
15.03856
 30
0.0
 40
0.0
 41
0.0
  0
SEQEND
  5
258
100
AcDbEntity
  8
0
  0
POLYLINE
  5
259
100
AcDbEntity
  8
1
  6
CONTINUOUS
 62
   250
 48
0.1
100
AcDb2dPolyline
 66
     1
 10
0.0
 20
0.0
 30
0.0
 70
   128
  0
VERTEX
  5
25A
100
AcDbEntity
  8
1
  6
CONTINUOUS
 62
   250
 48
0.1
100
AcDbVertex
100
AcDb2dVertex
 10
19.40032
 20
14.65976
 30
0.0
 40
0.0
 41
0.0
  0
VERTEX
  5
25B
100
AcDbEntity
  8
1
  6
CONTINUOUS
 62
   250
 48
0.1
100
AcDbVertex
100
AcDb2dVertex
 10
19.40032
 20
15.03856
 30
0.0
 40
0.0
 41
0.0
  0
SEQEND
  5
25C
100
AcDbEntity
  8
0
  0
POLYLINE
  5
25D
100
AcDbEntity
  8
1
  6
CONTINUOUS
 62
   250
 48
0.1
100
AcDb2dPolyline
 66
     1
 10
0.0
 20
0.0
 30
0.0
 70
   128
  0
VERTEX
  5
25E
100
AcDbEntity
  8
1
  6
CONTINUOUS
 62
   250
 48
0.1
100
AcDbVertex
100
AcDb2dVertex
 10
18.426987
 20
14.988561
 30
0.0
 40
0.0
 41
0.0
  0
VERTEX
  5
25F
100
AcDbEntity
  8
1
  6
CONTINUOUS
 62
   250
 48
0.1
100
AcDbVertex
100
AcDb2dVertex
 10
17.90032
 20
14.988561
 30
0.0
 40
0.0
 41
0.0
  0
SEQEND
  5
260
100
AcDbEntity
  8
0
  0
POLYLINE
  5
261
100
AcDbEntity
  8
1
  6
CONTINUOUS
 62
   250
 48
0.1
100
AcDb2dPolyline
 66
     1
 10
0.0
 20
0.0
 30
0.0
 70
   128
  0
VERTEX
  5
262
100
AcDbEntity
  8
1
  6
CONTINUOUS
 62
   250
 48
0.1
100
AcDbVertex
100
AcDb2dVertex
 10
18.000319
 20
14.968561
 30
0.0
 40
0.0
 41
0.0
  0
VERTEX
  5
263
100
AcDbEntity
  8
1
  6
CONTINUOUS
 62
   250
 48
0.1
100
AcDbVertex
100
AcDb2dVertex
 10
17.90032
 20
14.988561
 30
0.0
 40
0.0
 41
0.0
  0
VERTEX
  5
264
100
AcDbEntity
  8
1
  6
CONTINUOUS
 62
   250
 48
0.1
100
AcDbVertex
100
AcDb2dVertex
 10
18.000319
 20
15.00856
 30
0.0
 40
0.0
 41
0.0
  0
SEQEND
  5
265
100
AcDbEntity
  8
0
  0
POLYLINE
  5
266
100
AcDbEntity
  8
1
  6
CONTINUOUS
 62
   250
 48
0.1
100
AcDb2dPolyline
 66
     1
 10
0.0
 20
0.0
 30
0.0
 70
   128
  0
VERTEX
  5
267
100
AcDbEntity
  8
1
  6
CONTINUOUS
 62
   250
 48
0.1
100
AcDbVertex
100
AcDb2dVertex
 10
18.873653
 20
14.988561
 30
0.0
 40
0.0
 41
0.0
  0
VERTEX
  5
268
100
AcDbEntity
  8
1
  6
CONTINUOUS
 62
   250
 48
0.1
100
AcDbVertex
100
AcDb2dVertex
 10
19.40032
 20
14.988561
 30
0.0
 40
0.0
 41
0.0
  0
SEQEND
  5
269
100
AcDbEntity
  8
0
  0
POLYLINE
  5
26A
100
AcDbEntity
  8
1
  6
CONTINUOUS
 62
   250
 48
0.1
100
AcDb2dPolyline
 66
     1
 10
0.0
 20
0.0
 30
0.0
 70
   128
  0
VERTEX
  5
26B
100
AcDbEntity
  8
1
  6
CONTINUOUS
 62
   250
 48
0.1
100
AcDbVertex
100
AcDb2dVertex
 10
19.300321
 20
15.00856
 30
0.0
 40
0.0
 41
0.0
  0
VERTEX
  5
26C
100
AcDbEntity
  8
1
  6
CONTINUOUS
 62
   250
 48
0.1
100
AcDbVertex
100
AcDb2dVertex
 10
19.40032
 20
14.988561
 30
0.0
 40
0.0
 41
0.0
  0
VERTEX
  5
26D
100
AcDbEntity
  8
1
  6
CONTINUOUS
 62
   250
 48
0.1
100
AcDbVertex
100
AcDb2dVertex
 10
19.300321
 20
14.968561
 30
0.0
 40
0.0
 41
0.0
  0
SEQEND
  5
26E
100
AcDbEntity
  8
0
  0
TEXT
  5
26F
100
AcDbEntity
  8
1
 62
   250
 48
0.0
100
AcDbText
 10
18.476986
 20
14.938561
 30
0.0
 40
0.100001
  1
1.500
 72
     5
 11
18.823654
 21
14.938561
 31
0.0
210
0.0
220
0.0
230
1.0
100
AcDbText
  0
POLYLINE
  5
270
100
AcDbEntity
  8
1
  6
CONTINUOUS
 62
   250
 48
0.1
100
AcDb2dPolyline
 66
     1
 10
0.0
 20
0.0
 30
0.0
 70
   128
  0
VERTEX
  5
271
100
AcDbEntity
  8
1
  6
CONTINUOUS
 62
   250
 48
0.1
100
AcDbVertex
100
AcDb2dVertex
 10
12.57032
 20
12.39476
 30
0.0
 40
0.0
 41
0.0
  0
VERTEX
  5
272
100
AcDbEntity
  8
1
  6
CONTINUOUS
 62
   250
 48
0.1
100
AcDbVertex
100
AcDb2dVertex
 10
12.57032
 20
12.39476
 30
0.0
 40
0.0
 41
0.0
  0
SEQEND
  5
273
100
AcDbEntity
  8
0
  0
POLYLINE
  5
274
100
AcDbEntity
  8
1
  6
CONTINUOUS
 62
   250
 48
0.1
100
AcDb2dPolyline
 66
     1
 10
0.0
 20
0.0
 30
0.0
 70
   128
  0
VERTEX
  5
275
100
AcDbEntity
  8
1
  6
CONTINUOUS
 62
   250
 48
0.1
100
AcDbVertex
100
AcDb2dVertex
 10
14.38532
 20
11.02976
 30
0.0
 40
0.0
 41
0.0
  0
VERTEX
  5
276
100
AcDbEntity
  8
1
  6
CONTINUOUS
 62
   250
 48
0.1
100
AcDbVertex
100
AcDb2dVertex
 10
14.38532
 20
11.02976
 30
0.0
 40
0.0
 41
0.0
  0
SEQEND
  5
277
100
AcDbEntity
  8
0
  0
POLYLINE
  5
278
100
AcDbEntity
  8
1
  6
CONTINUOUS
 62
   250
 48
0.1
100
AcDb2dPolyline
 66
     1
 10
0.0
 20
0.0
 30
0.0
 70
   128
  0
VERTEX
  5
279
100
AcDbEntity
  8
1
  6
CONTINUOUS
 62
   250
 48
0.1
100
AcDbVertex
100
AcDb2dVertex
 10
13.050321
 20
10.82976
 30
0.0
 40
0.0
 41
0.0
  0
VERTEX
  5
27A
100
AcDbEntity
  8
1
  6
CONTINUOUS
 62
   250
 48
0.1
100
AcDbVertex
100
AcDb2dVertex
 10
12.646801
 20
10.82976
 30
0.0
 40
0.0
 41
0.0
  0
SEQEND
  5
27B
100
AcDbEntity
  8
0
  0
POLYLINE
  5
27C
100
AcDbEntity
  8
1
  6
CONTINUOUS
 62
   250
 48
0.1
100
AcDb2dPolyline
 66
     1
 10
0.0
 20
0.0
 30
0.0
 70
   128
  0
VERTEX
  5
27D
100
AcDbEntity
  8
1
  6
CONTINUOUS
 62
   250
 48
0.1
100
AcDbVertex
100
AcDb2dVertex
 10
12.6968
 20
11.388927
 30
0.0
 40
0.0
 41
0.0
  0
VERTEX
  5
27E
100
AcDbEntity
  8
1
  6
CONTINUOUS
 62
   250
 48
0.1
100
AcDbVertex
100
AcDb2dVertex
 10
12.6968
 20
10.82976
 30
0.0
 40
0.0
 41
0.0
  0
SEQEND
  5
27F
100
AcDbEntity
  8
0
  0
POLYLINE
  5
280
100
AcDbEntity
  8
1
  6
CONTINUOUS
 62
   250
 48
0.1
100
AcDb2dPolyline
 66
     1
 10
0.0
 20
0.0
 30
0.0
 70
   128
  0
VERTEX
  5
281
100
AcDbEntity
  8
1
  6
CONTINUOUS
 62
   250
 48
0.1
100
AcDbVertex
100
AcDb2dVertex
 10
12.716801
 20
10.92976
 30
0.0
 40
0.0
 41
0.0
  0
VERTEX
  5
282
100
AcDbEntity
  8
1
  6
CONTINUOUS
 62
   250
 48
0.1
100
AcDbVertex
100
AcDb2dVertex
 10
12.6968
 20
10.82976
 30
0.0
 40
0.0
 41
0.0
  0
VERTEX
  5
283
100
AcDbEntity
  8
1
  6
CONTINUOUS
 62
   250
 48
0.1
100
AcDbVertex
100
AcDb2dVertex
 10
12.6768
 20
10.92976
 30
0.0
 40
0.0
 41
0.0
  0
SEQEND
  5
284
100
AcDbEntity
  8
0
  0
POLYLINE
  5
285
100
AcDbEntity
  8
1
  6
CONTINUOUS
 62
   250
 48
0.1
100
AcDb2dPolyline
 66
     1
 10
0.0
 20
0.0
 30
0.0
 70
   128
  0
VERTEX
  5
286
100
AcDbEntity
  8
1
  6
CONTINUOUS
 62
   250
 48
0.1
100
AcDbVertex
100
AcDb2dVertex
 10
12.6968
 20
11.835593
 30
0.0
 40
0.0
 41
0.0
  0
VERTEX
  5
287
100
AcDbEntity
  8
1
  6
CONTINUOUS
 62
   250
 48
0.1
100
AcDbVertex
100
AcDb2dVertex
 10
12.6968
 20
12.39476
 30
0.0
 40
0.0
 41
0.0
  0
SEQEND
  5
288
100
AcDbEntity
  8
0
  0
POLYLINE
  5
289
100
AcDbEntity
  8
1
  6
CONTINUOUS
 62
   250
 48
0.1
100
AcDb2dPolyline
 66
     1
 10
0.0
 20
0.0
 30
0.0
 70
   128
  0
VERTEX
  5
28A
100
AcDbEntity
  8
1
  6
CONTINUOUS
 62
   250
 48
0.1
100
AcDbVertex
100
AcDb2dVertex
 10
12.6768
 20
12.29476
 30
0.0
 40
0.0
 41
0.0
  0
VERTEX
  5
28B
100
AcDbEntity
  8
1
  6
CONTINUOUS
 62
   250
 48
0.1
100
AcDbVertex
100
AcDb2dVertex
 10
12.6968
 20
12.39476
 30
0.0
 40
0.0
 41
0.0
  0
VERTEX
  5
28C
100
AcDbEntity
  8
1
  6
CONTINUOUS
 62
   250
 48
0.1
100
AcDbVertex
100
AcDb2dVertex
 10
12.716801
 20
12.29476
 30
0.0
 40
0.0
 41
0.0
  0
SEQEND
  5
28D
100
AcDbEntity
  8
0
  0
TEXT
  5
28E
100
AcDbEntity
  8
1
 62
   250
 48
0.0
100
AcDbText
 10
12.7468
 20
11.438926
 30
0.0
 40
0.1
  1
1.565
 50
90.0
 72
     5
 11
12.7468
 21
11.785593
 31
0.0
210
0.0
220
0.0
230
1.0
100
AcDbText
  0
POLYLINE
  5
28F
100
AcDbEntity
  8
1
  6
CONTINUOUS
 62
   250
 48
0.1
100
AcDb2dPolyline
 66
     1
 10
0.0
 20
0.0
 30
0.0
 70
   128
  0
VERTEX
  5
290
100
AcDbEntity
  8
1
  6
CONTINUOUS
 62
   250
 48
0.1
100
AcDbVertex
100
AcDb2dVertex
 10
13.15032
 20
11.62976
 30
0.0
 40
0.0
 41
0.0
  0
VERTEX
  5
291
100
AcDbEntity
  8
1
  6
CONTINUOUS
 62
   250
 48
0.1
100
AcDbVertex
100
AcDb2dVertex
 10
13.15032
 20
11.9376
 30
0.0
 40
0.0
 41
0.0
  0
SEQEND
  5
292
100
AcDbEntity
  8
0
  0
POLYLINE
  5
293
100
AcDbEntity
  8
1
  6
CONTINUOUS
 62
   250
 48
0.1
100
AcDb2dPolyline
 66
     1
 10
0.0
 20
0.0
 30
0.0
 70
   128
  0
VERTEX
  5
294
100
AcDbEntity
  8
1
  6
CONTINUOUS
 62
   250
 48
0.1
100
AcDbVertex
100
AcDb2dVertex
 10
14.38532
 20
11.62976
 30
0.0
 40
0.0
 41
0.0
  0
VERTEX
  5
295
100
AcDbEntity
  8
1
  6
CONTINUOUS
 62
   250
 48
0.1
100
AcDbVertex
100
AcDb2dVertex
 10
14.38532
 20
11.9376
 30
0.0
 40
0.0
 41
0.0
  0
SEQEND
  5
296
100
AcDbEntity
  8
0
  0
POLYLINE
  5
297
100
AcDbEntity
  8
1
  6
CONTINUOUS
 62
   250
 48
0.1
100
AcDb2dPolyline
 66
     1
 10
0.0
 20
0.0
 30
0.0
 70
   128
  0
VERTEX
  5
298
100
AcDbEntity
  8
1
  6
CONTINUOUS
 62
   250
 48
0.1
100
AcDbVertex
100
AcDb2dVertex
 10
13.542582
 20
11.8876
 30
0.0
 40
0.0
 41
0.0
  0
VERTEX
  5
299
100
AcDbEntity
  8
1
  6
CONTINUOUS
 62
   250
 48
0.1
100
AcDbVertex
100
AcDb2dVertex
 10
13.15032
 20
11.8876
 30
0.0
 40
0.0
 41
0.0
  0
SEQEND
  5
29A
100
AcDbEntity
  8
0
  0
POLYLINE
  5
29B
100
AcDbEntity
  8
1
  6
CONTINUOUS
 62
   250
 48
0.1
100
AcDb2dPolyline
 66
     1
 10
0.0
 20
0.0
 30
0.0
 70
   128
  0
VERTEX
  5
29C
100
AcDbEntity
  8
1
  6
CONTINUOUS
 62
   250
 48
0.1
100
AcDbVertex
100
AcDb2dVertex
 10
13.250319
 20
11.8676
 30
0.0
 40
0.0
 41
0.0
  0
VERTEX
  5
29D
100
AcDbEntity
  8
1
  6
CONTINUOUS
 62
   250
 48
0.1
100
AcDbVertex
100
AcDb2dVertex
 10
13.15032
 20
11.8876
 30
0.0
 40
0.0
 41
0.0
  0
VERTEX
  5
29E
100
AcDbEntity
  8
1
  6
CONTINUOUS
 62
   250
 48
0.1
100
AcDbVertex
100
AcDb2dVertex
 10
13.250319
 20
11.9076
 30
0.0
 40
0.0
 41
0.0
  0
SEQEND
  5
29F
100
AcDbEntity
  8
0
  0
POLYLINE
  5
2A0
100
AcDbEntity
  8
1
  6
CONTINUOUS
 62
   250
 48
0.1
100
AcDb2dPolyline
 66
     1
 10
0.0
 20
0.0
 30
0.0
 70
   128
  0
VERTEX
  5
2A1
100
AcDbEntity
  8
1
  6
CONTINUOUS
 62
   250
 48
0.1
100
AcDbVertex
100
AcDb2dVertex
 10
13.993058
 20
11.8876
 30
0.0
 40
0.0
 41
0.0
  0
VERTEX
  5
2A2
100
AcDbEntity
  8
1
  6
CONTINUOUS
 62
   250
 48
0.1
100
AcDbVertex
100
AcDb2dVertex
 10
14.38532
 20
11.8876
 30
0.0
 40
0.0
 41
0.0
  0
SEQEND
  5
2A3
100
AcDbEntity
  8
0
  0
POLYLINE
  5
2A4
100
AcDbEntity
  8
1
  6
CONTINUOUS
 62
   250
 48
0.1
100
AcDb2dPolyline
 66
     1
 10
0.0
 20
0.0
 30
0.0
 70
   128
  0
VERTEX
  5
2A5
100
AcDbEntity
  8
1
  6
CONTINUOUS
 62
   250
 48
0.1
100
AcDbVertex
100
AcDb2dVertex
 10
14.285321
 20
11.9076
 30
0.0
 40
0.0
 41
0.0
  0
VERTEX
  5
2A6
100
AcDbEntity
  8
1
  6
CONTINUOUS
 62
   250
 48
0.1
100
AcDbVertex
100
AcDb2dVertex
 10
14.38532
 20
11.8876
 30
0.0
 40
0.0
 41
0.0
  0
VERTEX
  5
2A7
100
AcDbEntity
  8
1
  6
CONTINUOUS
 62
   250
 48
0.1
100
AcDbVertex
100
AcDb2dVertex
 10
14.285321
 20
11.8676
 30
0.0
 40
0.0
 41
0.0
  0
SEQEND
  5
2A8
100
AcDbEntity
  8
0
  0
TEXT
  5
2A9
100
AcDbEntity
  8
1
 62
   250
 48
0.0
100
AcDbText
 10
13.592583
 20
11.8376
 30
0.0
 40
0.1
  1
1.235
 72
     5
 11
13.94306
 21
11.8376
 31
0.0
210
0.0
220
0.0
230
1.0
100
AcDbText
  0
POLYLINE
  5
2AA
100
AcDbEntity
  8
1
  6
CENTER
 62
   250
 48
0.25
100
AcDb2dPolyline
 66
     1
 10
0.0
 20
0.0
 30
0.0
 70
   128
  0
VERTEX
  5
2AB
100
AcDbEntity
  8
1
  6
CENTER
 62
   250
 48
0.25
100
AcDbVertex
100
AcDb2dVertex
 10
12.57032
 20
12.39476
 30
0.0
 40
0.0
 41
0.0
  0
VERTEX
  5
2AC
100
AcDbEntity
  8
1
  6
CENTER
 62
   250
 48
0.25
100
AcDbVertex
100
AcDb2dVertex
 10
19.45032
 20
12.394761
 30
0.0
 40
0.0
 41
0.0
  0
SEQEND
  5
2AD
100
AcDbEntity
  8
0
  0
POLYLINE
  5
2AE
100
AcDbEntity
  8
1
  6
CENTER
 62
   250
 48
0.25
100
AcDb2dPolyline
 66
     1
 10
0.0
 20
0.0
 30
0.0
 70
   128
  0
VERTEX
  5
2AF
100
AcDbEntity
  8
1
  6
CENTER
 62
   250
 48
0.25
100
AcDbVertex
100
AcDb2dVertex
 10
14.38532
 20
11.02976
 30
0.0
 40
0.0
 41
0.0
  0
VERTEX
  5
2B0
100
AcDbEntity
  8
1
  6
CENTER
 62
   250
 48
0.25
100
AcDbVertex
100
AcDb2dVertex
 10
14.38532
 20
13.759759
 30
0.0
 40
0.0
 41
0.0
  0
SEQEND
  5
2B1
100
AcDbEntity
  8
0
  0
CIRCLE
  5
2B2
100
AcDbEntity
  8
1
  6
CONTINUOUS
 62
   250
 48
0.1
100
AcDbCircle
 10
-14.38532
 20
12.39476
 30
0.0
 40
0.25
210
0.0
220
0.0
230
-1.0
  0
POLYLINE
  5
2B3
100
AcDbEntity
  8
1
  6
CONTINUOUS
 62
   250
 48
0.1
100
AcDb2dPolyline
 66
     1
 10
0.0
 20
0.0
 30
0.0
 70
   128
  0
VERTEX
  5
2B4
100
AcDbEntity
  8
1
  6
CONTINUOUS
 62
   250
 48
0.1
100
AcDbVertex
100
AcDb2dVertex
 10
18.50332
 20
11.35976
 30
0.0
 40
0.0
 41
0.0
  0
VERTEX
  5
2B5
100
AcDbEntity
  8
1
  6
CONTINUOUS
 62
   250
 48
0.1
100
AcDbVertex
100
AcDb2dVertex
 10
19.015319
 20
11.35976
 30
0.0
 40
0.0
 41
0.0
  0
SEQEND
  5
2B6
100
AcDbEntity
  8
0
  0
POLYLINE
  5
2B7
100
AcDbEntity
  8
1
  6
CENTER
 62
   250
 48
0.1
100
AcDb2dPolyline
 66
     1
 10
0.0
 20
0.0
 30
0.0
 70
   128
  0
VERTEX
  5
2B8
100
AcDbEntity
  8
1
  6
CENTER
 62
   250
 48
0.1
100
AcDbVertex
100
AcDb2dVertex
 10
18.75932
 20
10.35976
 30
0.0
 40
0.0
 41
0.0
  0
VERTEX
  5
2B9
100
AcDbEntity
  8
1
  6
CENTER
 62
   250
 48
0.1
100
AcDbVertex
100
AcDb2dVertex
 10
18.75932
 20
12.85976
 30
0.0
 40
0.0
 41
0.0
  0
SEQEND
  5
2BA
100
AcDbEntity
  8
0
  0
POLYLINE
  5
2BB
100
AcDbEntity
  8
1
  6
CONTINUOUS
 62
   250
 48
0.1
100
AcDb2dPolyline
 66
     1
 10
0.0
 20
0.0
 30
0.0
 70
   128
  0
VERTEX
  5
2BC
100
AcDbEntity
  8
1
  6
CONTINUOUS
 62
   250
 48
0.1
100
AcDbVertex
100
AcDb2dVertex
 10
17.67032
 20
10.72976
 30
0.0
 40
0.0
 41
0.0
  0
VERTEX
  5
2BD
100
AcDbEntity
  8
1
  6
CONTINUOUS
 62
   250
 48
0.1
100
AcDbVertex
100
AcDb2dVertex
 10
17.67032
 20
10.504481
 30
0.0
 40
0.0
 41
0.0
  0
SEQEND
  5
2BE
100
AcDbEntity
  8
0
  0
POLYLINE
  5
2BF
100
AcDbEntity
  8
1
  6
CONTINUOUS
 62
   250
 48
0.1
100
AcDb2dPolyline
 66
     1
 10
0.0
 20
0.0
 30
0.0
 70
   128
  0
VERTEX
  5
2C0
100
AcDbEntity
  8
1
  6
CONTINUOUS
 62
   250
 48
0.1
100
AcDbVertex
100
AcDb2dVertex
 10
17.991487
 20
10.55448
 30
0.0
 40
0.0
 41
0.0
  0
VERTEX
  5
2C1
100
AcDbEntity
  8
1
  6
CONTINUOUS
 62
   250
 48
0.1
100
AcDbVertex
100
AcDb2dVertex
 10
17.67032
 20
10.55448
 30
0.0
 40
0.0
 41
0.0
  0
SEQEND
  5
2C2
100
AcDbEntity
  8
0
  0
POLYLINE
  5
2C3
100
AcDbEntity
  8
1
  6
CONTINUOUS
 62
   250
 48
0.1
100
AcDb2dPolyline
 66
     1
 10
0.0
 20
0.0
 30
0.0
 70
   128
  0
VERTEX
  5
2C4
100
AcDbEntity
  8
1
  6
CONTINUOUS
 62
   250
 48
0.1
100
AcDbVertex
100
AcDb2dVertex
 10
17.770319
 20
10.53448
 30
0.0
 40
0.0
 41
0.0
  0
VERTEX
  5
2C5
100
AcDbEntity
  8
1
  6
CONTINUOUS
 62
   250
 48
0.1
100
AcDbVertex
100
AcDb2dVertex
 10
17.67032
 20
10.55448
 30
0.0
 40
0.0
 41
0.0
  0
VERTEX
  5
2C6
100
AcDbEntity
  8
1
  6
CONTINUOUS
 62
   250
 48
0.1
100
AcDbVertex
100
AcDb2dVertex
 10
17.770319
 20
10.574481
 30
0.0
 40
0.0
 41
0.0
  0
SEQEND
  5
2C7
100
AcDbEntity
  8
0
  0
POLYLINE
  5
2C8
100
AcDbEntity
  8
1
  6
CONTINUOUS
 62
   250
 48
0.1
100
AcDb2dPolyline
 66
     1
 10
0.0
 20
0.0
 30
0.0
 70
   128
  0
VERTEX
  5
2C9
100
AcDbEntity
  8
1
  6
CONTINUOUS
 62
   250
 48
0.1
100
AcDbVertex
100
AcDb2dVertex
 10
18.438153
 20
10.55448
 30
0.0
 40
0.0
 41
0.0
  0
VERTEX
  5
2CA
100
AcDbEntity
  8
1
  6
CONTINUOUS
 62
   250
 48
0.1
100
AcDbVertex
100
AcDb2dVertex
 10
18.75932
 20
10.55448
 30
0.0
 40
0.0
 41
0.0
  0
SEQEND
  5
2CB
100
AcDbEntity
  8
0
  0
POLYLINE
  5
2CC
100
AcDbEntity
  8
1
  6
CONTINUOUS
 62
   250
 48
0.1
100
AcDb2dPolyline
 66
     1
 10
0.0
 20
0.0
 30
0.0
 70
   128
  0
VERTEX
  5
2CD
100
AcDbEntity
  8
1
  6
CONTINUOUS
 62
   250
 48
0.1
100
AcDbVertex
100
AcDb2dVertex
 10
18.659321
 20
10.574481
 30
0.0
 40
0.0
 41
0.0
  0
VERTEX
  5
2CE
100
AcDbEntity
  8
1
  6
CONTINUOUS
 62
   250
 48
0.1
100
AcDbVertex
100
AcDb2dVertex
 10
18.75932
 20
10.55448
 30
0.0
 40
0.0
 41
0.0
  0
VERTEX
  5
2CF
100
AcDbEntity
  8
1
  6
CONTINUOUS
 62
   250
 48
0.1
100
AcDbVertex
100
AcDb2dVertex
 10
18.659321
 20
10.53448
 30
0.0
 40
0.0
 41
0.0
  0
SEQEND
  5
2D0
100
AcDbEntity
  8
0
  0
TEXT
  5
2D1
100
AcDbEntity
  8
1
 62
   250
 48
0.0
100
AcDbText
 10
18.041485
 20
10.504481
 30
0.0
 40
0.1
  1
1.089
 72
     5
 11
18.388153
 21
10.504481
 31
0.0
210
0.0
220
0.0
230
1.0
100
AcDbText
  0
POLYLINE
  5
2D2
100
AcDbEntity
  8
1
  6
CONTINUOUS
 62
   250
 48
0.1
100
AcDb2dPolyline
 66
     1
 10
0.0
 20
0.0
 30
0.0
 70
   128
  0
VERTEX
  5
2D3
100
AcDbEntity
  8
1
  6
CONTINUOUS
 62
   250
 48
0.1
100
AcDbVertex
100
AcDb2dVertex
 10
19.40032
 20
10.72976
 30
0.0
 40
0.0
 41
0.0
  0
VERTEX
  5
2D4
100
AcDbEntity
  8
1
  6
CONTINUOUS
 62
   250
 48
0.1
100
AcDbVertex
100
AcDb2dVertex
 10
19.40032
 20
10.504481
 30
0.0
 40
0.0
 41
0.0
  0
SEQEND
  5
2D5
100
AcDbEntity
  8
0
  0
POLYLINE
  5
2D6
100
AcDbEntity
  8
1
  6
CONTINUOUS
 62
   250
 48
0.1
100
AcDb2dPolyline
 66
     1
 10
0.0
 20
0.0
 30
0.0
 70
   128
  0
VERTEX
  5
2D7
100
AcDbEntity
  8
1
  6
CONTINUOUS
 62
   250
 48
0.1
100
AcDbVertex
100
AcDb2dVertex
 10
19.307915
 20
10.55448
 30
0.0
 40
0.0
 41
0.0
  0
VERTEX
  5
2D8
100
AcDbEntity
  8
1
  6
CONTINUOUS
 62
   250
 48
0.1
100
AcDbVertex
100
AcDb2dVertex
 10
19.40032
 20
10.55448
 30
0.0
 40
0.0
 41
0.0
  0
SEQEND
  5
2D9
100
AcDbEntity
  8
0
  0
POLYLINE
  5
2DA
100
AcDbEntity
  8
1
  6
CONTINUOUS
 62
   250
 48
0.1
100
AcDb2dPolyline
 66
     1
 10
0.0
 20
0.0
 30
0.0
 70
   128
  0
VERTEX
  5
2DB
100
AcDbEntity
  8
1
  6
CONTINUOUS
 62
   250
 48
0.1
100
AcDbVertex
100
AcDb2dVertex
 10
19.300321
 20
10.574481
 30
0.0
 40
0.0
 41
0.0
  0
VERTEX
  5
2DC
100
AcDbEntity
  8
1
  6
CONTINUOUS
 62
   250
 48
0.1
100
AcDbVertex
100
AcDb2dVertex
 10
19.40032
 20
10.55448
 30
0.0
 40
0.0
 41
0.0
  0
VERTEX
  5
2DD
100
AcDbEntity
  8
1
  6
CONTINUOUS
 62
   250
 48
0.1
100
AcDbVertex
100
AcDb2dVertex
 10
19.300321
 20
10.53448
 30
0.0
 40
0.0
 41
0.0
  0
SEQEND
  5
2DE
100
AcDbEntity
  8
0
  0
POLYLINE
  5
2DF
100
AcDbEntity
  8
1
  6
CONTINUOUS
 62
   250
 48
0.1
100
AcDb2dPolyline
 66
     1
 10
0.0
 20
0.0
 30
0.0
 70
   128
  0
VERTEX
  5
2E0
100
AcDbEntity
  8
1
  6
CONTINUOUS
 62
   250
 48
0.1
100
AcDbVertex
100
AcDb2dVertex
 10
18.851725
 20
10.55448
 30
0.0
 40
0.0
 41
0.0
  0
VERTEX
  5
2E1
100
AcDbEntity
  8
1
  6
CONTINUOUS
 62
   250
 48
0.1
100
AcDbVertex
100
AcDb2dVertex
 10
18.75932
 20
10.55448
 30
0.0
 40
0.0
 41
0.0
  0
SEQEND
  5
2E2
100
AcDbEntity
  8
0
  0
POLYLINE
  5
2E3
100
AcDbEntity
  8
1
  6
CONTINUOUS
 62
   250
 48
0.1
100
AcDb2dPolyline
 66
     1
 10
0.0
 20
0.0
 30
0.0
 70
   128
  0
VERTEX
  5
2E4
100
AcDbEntity
  8
1
  6
CONTINUOUS
 62
   250
 48
0.1
100
AcDbVertex
100
AcDb2dVertex
 10
18.85932
 20
10.53448
 30
0.0
 40
0.0
 41
0.0
  0
VERTEX
  5
2E5
100
AcDbEntity
  8
1
  6
CONTINUOUS
 62
   250
 48
0.1
100
AcDbVertex
100
AcDb2dVertex
 10
18.75932
 20
10.55448
 30
0.0
 40
0.0
 41
0.0
  0
VERTEX
  5
2E6
100
AcDbEntity
  8
1
  6
CONTINUOUS
 62
   250
 48
0.1
100
AcDbVertex
100
AcDb2dVertex
 10
18.85932
 20
10.574481
 30
0.0
 40
0.0
 41
0.0
  0
SEQEND
  5
2E7
100
AcDbEntity
  8
0
  0
TEXT
  5
2E8
100
AcDbEntity
  8
1
 62
   250
 48
0.0
100
AcDbText
 10
18.901725
 20
10.50448
 30
0.0
 40
0.1
  1
0.641
 72
     5
 11
19.257915
 21
10.50448
 31
0.0
210
0.0
220
0.0
230
1.0
100
AcDbText
  0
ENDSEC
  0
SECTION
  2
OBJECTS
  0
DICTIONARY
  5
19
100
AcDbDictionary
  3
ACAD_GROUP
350
1A
  3
ACAD_MLINESTYLE
350
1B
  0
DICTIONARY
  5
1A
102
{ACAD_REACTORS
330
19
102
}
100
AcDbDictionary
  0
DICTIONARY
  5
1B
102
{ACAD_REACTORS
330
19
102
}
100
AcDbDictionary
  3
STANDARD
350
1C
  0
MLINESTYLE
  5
1C
102
{ACAD_REACTORS
330
1B
102
}
100
AcDbMlineStyle
  2
STANDARD
 70
     0
  3

 62
     0
 51
90.0
 52
90.0
 71
     2
 49
0.5
 62
   256
  6
BYLAYER
 49
-0.5
 62
   256
  6
BYLAYER
  0
ENDSEC
  0
EOF
