  0
SECTION
  2
HEADER
  9
$ACADVER
  1
AC1009
  9
$INSBASE
 10
0.0
 20
0.0
 30
0.0
  9
$EXTMIN
 10
25.558241
 20
4.572809
 30
0.0
  9
$EXTMAX
 10
35.611991
 20
16.435809
 30
0.0
  9
$LIMMIN
 10
0.0
 20
0.0
  9
$LIMMAX
 10
0.0
 20
0.0
  9
$ORTHOMODE
 70
     0
  9
$REGENMODE
 70
     1
  9
$FILLMODE
 70
     1
  9
$QTEXTMODE
 70
     0
  9
$MIRRTEXT
 70
     1
  9
$DRAGMODE
 70
     2
  9
$LTSCALE
 40
1.0
  9
$OSMODE
 70
     0
  9
$ATTMODE
 70
     1
  9
$TEXTSIZE
 40
0.2
  9
$TRACEWID
 40
0.05
  9
$TEXTSTYLE
  7
STANDARD
  9
$CLAYER
  8
0
  9
$CELTYPE
  6
CONTINUOUS
  9
$CECOLOR
 62
   256
  9
$DIMSCALE
 40
1.0
  9
$DIMASZ
 40
0.18
  9
$DIMEXO
 40
0.0625
  9
$DIMDLI
 40
0.38
  9
$DIMRND
 40
0.0
  9
$DIMDLE
 40
0.0
  9
$DIMEXE
 40
0.18
  9
$DIMTP
 40
0.0
  9
$DIMTM
 40
0.0
  9
$DIMTXT
 40
0.18
  9
$DIMCEN
 40
0.09
  9
$DIMTSZ
 40
0.0
  9
$DIMTOL
 70
     0
  9
$DIMLIM
 70
     0
  9
$DIMTIH
 70
     1
  9
$DIMTOH
 70
     1
  9
$DIMSE1
 70
     0
  9
$DIMSE2
 70
     0
  9
$DIMTAD
 70
     0
  9
$DIMZIN
 70
     0
  9
$DIMBLK
  1

  9
$DIMASO
 70
     1
  9
$DIMSHO
 70
     1
  9
$DIMPOST
  1

  9
$DIMAPOST
  1

  9
$DIMALT
 70
     0
  9
$DIMALTD
 70
     2
  9
$DIMALTF
 40
25.4
  9
$DIMLFAC
 40
1.0
  9
$DIMTOFL
 70
     0
  9
$DIMTVP
 40
0.0
  9
$DIMTIX
 70
     0
  9
$DIMSOXD
 70
     0
  9
$DIMSAH
 70
     0
  9
$DIMBLK1
  1

  9
$DIMBLK2
  1

  9
$DIMSTYLE
  2
STANDARD
  9
$DIMCLRD
 70
     0
  9
$DIMCLRE
 70
     0
  9
$DIMCLRT
 70
     0
  9
$DIMTFAC
 40
1.0
  9
$DIMGAP
 40
0.09
  9
$LUNITS
 70
     2
  9
$LUPREC
 70
     4
  9
$AXISMODE
 70
     0
  9
$AXISUNIT
 10
0.0
 20
0.0
  9
$SKETCHINC
 40
0.1
  9
$FILLETRAD
 40
0.0
  9
$AUNITS
 70
     0
  9
$AUPREC
 70
     0
  9
$MENU
  1
acad
  9
$ELEVATION
 40
0.0
  9
$PELEVATION
 40
0.0
  9
$THICKNESS
 40
0.0
  9
$LIMCHECK
 70
     0
  9
$BLIPMODE
 70
     1
  9
$CHAMFERA
 40
0.0
  9
$CHAMFERB
 40
0.0
  9
$SKPOLY
 70
     0
  9
$TDCREATE
 40
0.000000000
  9
$TDUPDATE
 40
0.000000000
  9
$TDINDWG
 40
0.0000000000
  9
$TDUSRTIMER
 40
0.0000000000
  9
$USRTIMER
 70
     1
  9
$ANGBASE
 50
0.0
  9
$ANGDIR
 70
     0
  9
$PDMODE
 70
     0
  9
$PDSIZE
 40
0.0
  9
$PLINEWID
 40
0.0
  9
$COORDS
 70
     0
  9
$SPLFRAME
 70
     0
  9
$SPLINETYPE
 70
     6
  9
$SPLINESEGS
 70
     8
  9
$ATTDIA
 70
     0
  9
$ATTREQ
 70
     1
  9
$HANDLING
 70
     1
  9
$HANDSEED
  5
1B1
  9
$SURFTAB1
 70
     6
  9
$SURFTAB2
 70
     6
  9
$SURFTYPE
 70
     6
  9
$SURFU
 70
     6
  9
$SURFV
 70
     6
  9
$UCSNAME
  2

  9
$UCSORG
 10
0.0
 20
0.0
 30
0.0
  9
$UCSXDIR
 10
1.0
 20
0.0
 30
0.0
  9
$UCSYDIR
 10
0.0
 20
1.0
 30
0.0
  9
$PUCSNAME
  2

  9
$PUCSORG
 10
0.0
 20
0.0
 30
0.0
  9
$PUCSXDIR
 10
1.0
 20
0.0
 30
0.0
  9
$PUCSYDIR
 10
0.0
 20
1.0
 30
0.0
  9
$USERI1
 70
     0
  9
$USERI2
 70
     0
  9
$USERI3
 70
     0
  9
$USERI4
 70
     0
  9
$USERI5
 70
     0
  9
$USERR1
 40
0.0
  9
$USERR2
 40
0.0
  9
$USERR3
 40
0.0
  9
$USERR4
 40
0.0
  9
$USERR5
 40
0.0
  9
$WORLDVIEW
 70
     1
  9
$SHADEDGE
 70
     3
  9
$SHADEDIF
 70
    70
  9
$TILEMODE
 70
     1
  9
$MAXACTVP
 70
    16
  9
$PINSBASE
 10
0.0
 20
0.0
 30
0.0
  9
$PLIMCHECK
 70
     0
  9
$PEXTMIN
 10
1.000000E+20
 20
1.000000E+20
 30
1.000000E+20
  9
$PEXTMAX
 10
-1.000000E+20
 20
-1.000000E+20
 30
-1.000000E+20
  9
$PLIMMIN
 10
0.0
 20
0.0
  9
$PLIMMAX
 10
12.0
 20
9.0
  9
$UNITMODE
 70
     0
  9
$VISRETAIN
 70
     0
  9
$PLINEGEN
 70
     0
  9
$PSLTSCALE
 70
     0
  9
$TREEDEPTH
 70
  3020
  9
$DWGCODEPAGE
  3
dos850
  0
ENDSEC
  0
SECTION
  2
TABLES
  0
TABLE
  2
VPORT
 70
     2
  0
VPORT
  2
*ACTIVE
 70
     0
 10
0.0
 20
0.0
 11
1.0
 21
1.0
 12
6.591288
 22
4.579184
 13
0.0
 23
0.0
 14
1.0
 24
1.0
 15
0.0
 25
0.0
 16
0.0
 26
0.0
 36
1.0
 17
0.0
 27
0.0
 37
0.0
 40
9.158369
 41
0.688564
 42
50.0
 43
0.0
 44
0.0
 50
0.0
 51
0.0
 71
     0
 72
   100
 73
     1
 74
     1
 75
     0
 76
     0
 77
     0
 78
     0
  0
VPORT
  2
DCADVPORT
 70
     0
 10
25.558241
 20
4.572809
 11
35.611991
 21
16.435809
 12
6.21
 22
9.02
 13
0.0
 23
0.0
 14
1.0
 24
1.0
 15
0.0
 25
0.0
 16
0.0
 26
0.0
 36
1.0
 17
0.0
 27
0.0
 37
0.0
 40
18.04
 41
0.688564
 42
50.0
 43
1.0
 44
1.0
 50
0.0
 51
0.0
 71
     0
 72
   100
 73
     1
 74
     1
 75
     0
 76
     0
 77
     0
 78
     0
  0
ENDTAB
  0
TABLE
  2
LTYPE
 70
    13
  0
LTYPE
  2
CONTINUOUS
 70
     0
  3
Solid line
 72
    65
 73
     0
 40
0.0
  0
LTYPE
  2
CONTINUOUS
 70
     0
  3
Solid line
 72
    65
 73
     0
 40
0.0
  0
LTYPE
  2
BORDER
 70
    64
  3
__ __ . __ __ . __ __ . __ __ . __ __ . __ __ .
 72
    65
 73
     6
 40
1.75
 49
0.5
 49
-0.25
 49
0.5
 49
-0.25
 49
0.0
 49
-0.25
  0
LTYPE
  2
BORDER2
 70
    64
  3
__.__.__.__.__.__.__.__.__.__.__.__.__.__.__.__
 72
    65
 73
     6
 40
0.875
 49
0.25
 49
-0.125
 49
0.25
 49
-0.125
 49
0.0
 49
-0.125
  0
LTYPE
  2
CENTER
 70
    64
  3
____ _ ____ _ ____ _ ____ _ ____ _ ____ _ ____ 
 72
    65
 73
     4
 40
2.0
 49
1.25
 49
-0.25
 49
0.25
 49
-0.25
  0
LTYPE
  2
DASHDOT
 70
    64
  3
__ . __ . __ . __ . __ . __ . __ . __ . __ . __
 72
    65
 73
     4
 40
1.0
 49
0.5
 49
-0.25
 49
0.0
 49
-0.25
  0
LTYPE
  2
DASHDOT2
 70
    64
  3
_._._._._._._._._._._._._._._._._._._._._._._._
 72
    65
 73
     4
 40
0.5
 49
0.25
 49
-0.125
 49
0.0
 49
-0.125
  0
LTYPE
  2
DASHED
 70
    64
  3
__ __ __ __ __ __ __ __ __ __ __ __ __ __ __ __
 72
    65
 73
     2
 40
0.75
 49
0.5
 49
-0.25
  0
LTYPE
  2
DIVIDE
 70
    64
  3
____ . . ____ . . ____ . . ____ . . ____ . . __
 72
    65
 73
     6
 40
1.25
 49
0.5
 49
-0.25
 49
0.0
 49
-0.25
 49
0.0
 49
-0.25
  0
LTYPE
  2
DIVIDE2
 70
    64
  3
__..__..__..__..__..__..__..__..__..__..__..__.
 72
    65
 73
     6
 40
0.625
 49
0.25
 49
-0.125
 49
0.0
 49
-0.125
 49
0.0
 49
-0.125
  0
LTYPE
  2
DOT
 70
    64
  3
. . . . . . . . . . . . . . . . . . . . . . . .
 72
    65
 73
     2
 40
0.25
 49
0.0
 49
-0.25
  0
LTYPE
  2
HIDDEN
 70
    64
  3
__ __ __ __ __ __ __ __ __ __ __ __ __ __ __ __
 72
    65
 73
     2
 40
0.375
 49
0.25
 49
-0.125
  0
LTYPE
  2
PHANTOM
 70
    64
  3
______  __  __  ______  __  __  ______  __  __ 
 72
    65
 73
     6
 40
2.5
 49
1.25
 49
-0.25
 49
0.25
 49
-0.25
 49
0.25
 49
-0.25
  0
ENDTAB
  0
TABLE
  2
LAYER
 70
     2
  0
LAYER
  2
0
 70
     0
 62
     7
  6
CONTINUOUS
  0
LAYER
  2
1
 70
     0
 62
   250
  6
CONTINUOUS
  0
ENDTAB
  0
TABLE
  2
STYLE
 70
     2
  0
STYLE
  2
STANDARD
 70
     0
 40
0.0
 41
1.0
 50
0.0
 71
     0
 42
0.0
  3
txt
  4

  0
STYLE
  2
BIGFONT
 70
    64
 40
3.0
 41
1.0
 50
0.0
 71
     0
 42
0.2
  3

  4
BIGFONT
  0
ENDTAB
  0
TABLE
  2
VIEW
 70
     0
  0
ENDTAB
  0
TABLE
  2
UCS
 70
     0
  0
ENDTAB
  0
TABLE
  2
APPID
 70
     1
  0
APPID
  2
ACAD
 70
     0
  0
ENDTAB
  0
TABLE
  2
DIMSTYLE
 70
     1
  0
DIMSTYLE
  2
STANDARD
 70
     0
  3

  4

  5

  6

  7

 40
1.0
 41
0.18
 42
0.0625
 43
0.38
 44
0.18
 45
0.0
 46
0.0
 47
0.0
 48
0.0
140
0.18
141
0.09
142
0.0
143
25.4
144
1.0
145
0.0
146
1.0
147
0.09
 71
     0
 72
     0
 73
     1
 74
     1
 75
     0
 76
     0
 77
     0
 78
     0
170
     0
171
     2
172
     0
173
     0
174
     0
175
     0
176
     0
177
     0
178
     0
  0
ENDTAB
  0
ENDSEC
  0
SECTION
  2
BLOCKS
  0
ENDSEC
  0
SECTION
  2
ENTITIES
  0
POLYLINE
  8
1
  6
CONTINUOUS
 62
   250
 48
0.805031
  5
2C
 66
     1
 10
0.0
 20
0.0
 30
0.0
 70
   128
  0
VERTEX
  8
1
  6
CONTINUOUS
 62
   250
 48
0.805031
  5
2D
 10
25.808241
 20
5.010309
 30
0.0
 40
0.0
 41
0.0
  0
VERTEX
  8
1
  6
CONTINUOUS
 62
   250
 48
0.805031
  5
2E
 10
25.558241
 20
5.010309
 30
0.0
 40
0.0
 41
0.0
  0
SEQEND
  8
0
  5
2F
  0
POLYLINE
  8
1
  6
CONTINUOUS
 62
   250
 48
0.805031
  5
30
 66
     1
 10
0.0
 20
0.0
 30
0.0
 70
   128
  0
VERTEX
  8
1
  6
CONTINUOUS
 62
   250
 48
0.805031
  5
31
 10
29.058241
 20
5.010309
 30
0.0
 40
0.0
 41
0.0
  0
VERTEX
  8
1
  6
CONTINUOUS
 62
   250
 48
0.805031
  5
32
 10
28.245741
 20
5.010309
 30
0.0
 40
0.0
 41
0.0
  0
SEQEND
  8
0
  5
33
  0
POLYLINE
  8
1
  6
CONTINUOUS
 62
   250
 48
0.805031
  5
34
 66
     1
 10
0.0
 20
0.0
 30
0.0
 70
   128
  0
VERTEX
  8
1
  6
CONTINUOUS
 62
   250
 48
0.805031
  5
35
 10
28.245741
 20
5.010309
 30
0.0
 40
0.0
 41
0.0
  0
VERTEX
  8
1
  6
CONTINUOUS
 62
   250
 48
0.805031
  5
36
 10
28.245741
 20
4.572809
 30
0.0
 40
0.0
 41
0.0
  0
SEQEND
  8
0
  5
37
  0
POLYLINE
  8
1
  6
CONTINUOUS
 62
   250
 48
0.805031
  5
38
 66
     1
 10
0.0
 20
0.0
 30
0.0
 70
   128
  0
VERTEX
  8
1
  6
CONTINUOUS
 62
   250
 48
0.805031
  5
39
 10
29.058241
 20
9.197809
 30
0.0
 40
0.0
 41
0.0
  0
VERTEX
  8
1
  6
CONTINUOUS
 62
   250
 48
0.805031
  5
3A
 10
28.383239
 20
9.197809
 30
0.0
 40
0.0
 41
0.0
  0
SEQEND
  8
0
  5
3B
  0
POLYLINE
  8
1
  6
CONTINUOUS
 62
   250
 48
0.805031
  5
3C
 66
     1
 10
0.0
 20
0.0
 30
0.0
 70
   128
  0
VERTEX
  8
1
  6
CONTINUOUS
 62
   250
 48
0.805031
  5
3D
 10
28.933241
 20
9.522809
 30
0.0
 40
0.0
 41
0.0
  0
VERTEX
  8
1
  6
CONTINUOUS
 62
   250
 48
0.805031
  5
3E
 10
29.058241
 20
9.522809
 30
0.0
 40
0.0
 41
0.0
  0
VERTEX
  8
1
  6
CONTINUOUS
 62
   250
 48
0.805031
  5
3F
 10
29.058241
 20
9.58581
 30
0.0
 40
0.0
 41
0.0
  0
VERTEX
  8
1
  6
CONTINUOUS
 62
   250
 48
0.805031
  5
40
 10
29.668242
 20
9.58581
 30
0.0
 40
0.0
 41
0.0
  0
SEQEND
  8
0
  5
41
  0
POLYLINE
  8
1
  6
CONTINUOUS
 62
   250
 48
0.805031
  5
42
 66
     1
 10
0.0
 20
0.0
 30
0.0
 70
   128
  0
VERTEX
  8
1
  6
CONTINUOUS
 62
   250
 48
0.805031
  5
43
 10
28.933241
 20
9.622809
 30
0.0
 40
0.0
 41
0.0
  0
VERTEX
  8
1
  6
CONTINUOUS
 62
   250
 48
0.805031
  5
44
 10
28.78324
 20
9.772809
 30
0.0
 40
0.0
 41
0.0
  0
SEQEND
  8
0
  5
45
  0
POLYLINE
  8
1
  6
CONTINUOUS
 62
   250
 48
0.805031
  5
46
 66
     1
 10
0.0
 20
0.0
 30
0.0
 70
   128
  0
VERTEX
  8
1
  6
CONTINUOUS
 62
   250
 48
0.805031
  5
47
 10
28.78324
 20
9.772809
 30
0.0
 40
0.0
 41
0.0
  0
VERTEX
  8
1
  6
CONTINUOUS
 62
   250
 48
0.805031
  5
48
 10
28.53324
 20
9.772809
 30
0.0
 40
0.0
 41
0.0
  0
SEQEND
  8
0
  5
49
  0
POLYLINE
  8
1
  6
CONTINUOUS
 62
   250
 48
0.805031
  5
4A
 66
     1
 10
0.0
 20
0.0
 30
0.0
 70
   128
  0
VERTEX
  8
1
  6
CONTINUOUS
 62
   250
 48
0.805031
  5
4B
 10
28.53324
 20
9.772809
 30
0.0
 40
0.0
 41
0.0
  0
VERTEX
  8
1
  6
CONTINUOUS
 62
   250
 48
0.805031
  5
4C
 10
28.383239
 20
9.622809
 30
0.0
 40
0.0
 41
0.0
  0
SEQEND
  8
0
  5
4D
  0
POLYLINE
  8
1
  6
CONTINUOUS
 62
   250
 48
0.805031
  5
4E
 66
     1
 10
0.0
 20
0.0
 30
0.0
 70
   128
  0
VERTEX
  8
1
  6
CONTINUOUS
 62
   250
 48
0.805031
  5
4F
 10
28.383239
 20
9.622809
 30
0.0
 40
0.0
 41
0.0
  0
VERTEX
  8
1
  6
CONTINUOUS
 62
   250
 48
0.805031
  5
50
 10
28.383239
 20
9.197809
 30
0.0
 40
0.0
 41
0.0
  0
SEQEND
  8
0
  5
51
  0
POLYLINE
  8
1
  6
CONTINUOUS
 62
   250
 48
0.805031
  5
52
 66
     1
 10
0.0
 20
0.0
 30
0.0
 70
   128
  0
VERTEX
  8
1
  6
CONTINUOUS
 62
   250
 48
0.805031
  5
53
 10
28.933241
 20
9.622809
 30
0.0
 40
0.0
 41
0.0
  0
VERTEX
  8
1
  6
CONTINUOUS
 62
   250
 48
0.805031
  5
54
 10
28.933241
 20
9.522809
 30
0.0
 40
0.0
 41
0.0
  0
SEQEND
  8
0
  5
55
  0
POLYLINE
  8
1
  6
CONTINUOUS
 62
   250
 48
0.805031
  5
56
 66
     1
 10
0.0
 20
0.0
 30
0.0
 70
   128
  0
VERTEX
  8
1
  6
CONTINUOUS
 62
   250
 48
0.805031
  5
57
 10
29.668242
 20
9.58581
 30
0.0
 40
0.0
 41
0.0
  0
VERTEX
  8
1
  6
CONTINUOUS
 62
   250
 48
0.805031
  5
58
 10
29.668242
 20
9.197811
 30
0.0
 40
0.0
 41
0.0
  0
SEQEND
  8
0
  5
59
  0
POLYLINE
  8
1
  6
CONTINUOUS
 62
   250
 48
0.805031
  5
5A
 66
     1
 10
0.0
 20
0.0
 30
0.0
 70
   128
  0
VERTEX
  8
1
  6
CONTINUOUS
 62
   250
 48
0.805031
  5
5B
 10
29.668242
 20
9.197811
 30
0.0
 40
0.0
 41
0.0
  0
VERTEX
  8
1
  6
CONTINUOUS
 62
   250
 48
0.805031
  5
5C
 10
29.393241
 20
9.197811
 30
0.0
 40
0.0
 41
0.0
  0
SEQEND
  8
0
  5
5D
  0
POLYLINE
  8
1
  6
CONTINUOUS
 62
   250
 48
0.805031
  5
5E
 66
     1
 10
0.0
 20
0.0
 30
0.0
 70
   128
  0
VERTEX
  8
1
  6
CONTINUOUS
 62
   250
 48
0.805031
  5
5F
 10
29.393241
 20
8.74781
 30
0.0
 40
0.0
 41
0.0
  0
VERTEX
  8
1
  6
CONTINUOUS
 62
   250
 48
0.805031
  5
60
 10
29.393241
 20
8.74781
 30
0.0
 40
0.0
 41
0.0
  0
SEQEND
  8
0
  5
61
  0
POLYLINE
  8
1
  6
CONTINUOUS
 62
   250
 48
0.805031
  5
62
 66
     1
 10
0.0
 20
0.0
 30
0.0
 70
   128
  0
VERTEX
  8
1
  6
CONTINUOUS
 62
   250
 48
0.805031
  5
63
 10
29.393241
 20
8.74781
 30
0.0
 40
0.0
 41
0.0
  0
VERTEX
  8
1
  6
CONTINUOUS
 62
   250
 48
0.805031
  5
64
 10
29.393241
 20
9.197811
 30
0.0
 40
0.0
 41
0.0
  0
SEQEND
  8
0
  5
65
  0
POLYLINE
  8
1
  6
CONTINUOUS
 62
   250
 48
0.805031
  5
66
 66
     1
 10
0.0
 20
0.0
 30
0.0
 70
   128
  0
VERTEX
  8
1
  6
CONTINUOUS
 62
   250
 48
0.805031
  5
67
 10
30.618241
 20
9.58581
 30
0.0
 40
0.0
 41
0.0
  0
VERTEX
  8
1
  6
CONTINUOUS
 62
   250
 48
0.805031
  5
68
 10
30.618241
 20
9.19781
 30
0.0
 40
0.0
 41
0.0
  0
SEQEND
  8
0
  5
69
  0
POLYLINE
  8
1
  6
CONTINUOUS
 62
   250
 48
0.805031
  5
6A
 66
     1
 10
0.0
 20
0.0
 30
0.0
 70
   128
  0
VERTEX
  8
1
  6
CONTINUOUS
 62
   250
 48
0.805031
  5
6B
 10
30.618241
 20
9.58581
 30
0.0
 40
0.0
 41
0.0
  0
VERTEX
  8
1
  6
CONTINUOUS
 62
   250
 48
0.805031
  5
6C
 10
31.618241
 20
9.58581
 30
0.0
 40
0.0
 41
0.0
  0
VERTEX
  8
1
  6
CONTINUOUS
 62
   250
 48
0.805031
  5
6D
 10
31.618241
 20
9.19781
 30
0.0
 40
0.0
 41
0.0
  0
SEQEND
  8
0
  5
6E
  0
POLYLINE
  8
1
  6
CONTINUOUS
 62
   250
 48
0.805031
  5
6F
 66
     1
 10
0.0
 20
0.0
 30
0.0
 70
   128
  0
VERTEX
  8
1
  6
CONTINUOUS
 62
   250
 48
0.805031
  5
70
 10
30.618241
 20
9.19781
 30
0.0
 40
0.0
 41
0.0
  0
VERTEX
  8
1
  6
CONTINUOUS
 62
   250
 48
0.805031
  5
71
 10
30.868241
 20
9.19781
 30
0.0
 40
0.0
 41
0.0
  0
SEQEND
  8
0
  5
72
  0
POLYLINE
  8
1
  6
CONTINUOUS
 62
   250
 48
0.805031
  5
73
 66
     1
 10
0.0
 20
0.0
 30
0.0
 70
   128
  0
VERTEX
  8
1
  6
CONTINUOUS
 62
   250
 48
0.805031
  5
74
 10
30.868241
 20
9.19781
 30
0.0
 40
0.0
 41
0.0
  0
VERTEX
  8
1
  6
CONTINUOUS
 62
   250
 48
0.805031
  5
75
 10
30.868241
 20
8.74781
 30
0.0
 40
0.0
 41
0.0
  0
VERTEX
  8
1
  6
CONTINUOUS
 62
   250
 48
0.805031
  5
76
 10
29.393241
 20
8.74781
 30
0.0
 40
0.0
 41
0.0
  0
SEQEND
  8
0
  5
77
  0
POLYLINE
  8
1
  6
CONTINUOUS
 62
   250
 48
0.805031
  5
78
 66
     1
 10
0.0
 20
0.0
 30
0.0
 70
   128
  0
VERTEX
  8
1
  6
CONTINUOUS
 62
   250
 48
0.805031
  5
79
 10
31.618241
 20
9.19781
 30
0.0
 40
0.0
 41
0.0
  0
VERTEX
  8
1
  6
CONTINUOUS
 62
   250
 48
0.805031
  5
7A
 10
31.293242
 20
9.19781
 30
0.0
 40
0.0
 41
0.0
  0
SEQEND
  8
0
  5
7B
  0
POLYLINE
  8
1
  6
CONTINUOUS
 62
   250
 48
0.805031
  5
7C
 66
     1
 10
0.0
 20
0.0
 30
0.0
 70
   128
  0
VERTEX
  8
1
  6
CONTINUOUS
 62
   250
 48
0.805031
  5
7D
 10
31.293242
 20
9.19781
 30
0.0
 40
0.0
 41
0.0
  0
VERTEX
  8
1
  6
CONTINUOUS
 62
   250
 48
0.805031
  5
7E
 10
31.293242
 20
5.01031
 30
0.0
 40
0.0
 41
0.0
  0
SEQEND
  8
0
  5
7F
  0
POLYLINE
  8
1
  6
CONTINUOUS
 62
   250
 48
0.805031
  5
80
 66
     1
 10
0.0
 20
0.0
 30
0.0
 70
   128
  0
VERTEX
  8
1
  6
CONTINUOUS
 62
   250
 48
0.805031
  5
81
 10
31.293242
 20
5.01031
 30
0.0
 40
0.0
 41
0.0
  0
VERTEX
  8
1
  6
CONTINUOUS
 62
   250
 48
0.805031
  5
82
 10
32.105742
 20
5.01031
 30
0.0
 40
0.0
 41
0.0
  0
SEQEND
  8
0
  5
83
  0
POLYLINE
  8
1
  6
CONTINUOUS
 62
   250
 48
0.805031
  5
84
 66
     1
 10
0.0
 20
0.0
 30
0.0
 70
   128
  0
VERTEX
  8
1
  6
CONTINUOUS
 62
   250
 48
0.805031
  5
85
 10
32.105742
 20
5.01031
 30
0.0
 40
0.0
 41
0.0
  0
VERTEX
  8
1
  6
CONTINUOUS
 62
   250
 48
0.805031
  5
86
 10
32.105742
 20
4.57281
 30
0.0
 40
0.0
 41
0.0
  0
SEQEND
  8
0
  5
87
  0
POLYLINE
  8
1
  6
CONTINUOUS
 62
   250
 48
0.805031
  5
88
 66
     1
 10
0.0
 20
0.0
 30
0.0
 70
   128
  0
VERTEX
  8
1
  6
CONTINUOUS
 62
   250
 48
0.805031
  5
89
 10
29.058241
 20
5.010309
 30
0.0
 40
0.0
 41
0.0
  0
VERTEX
  8
1
  6
CONTINUOUS
 62
   250
 48
0.805031
  5
8A
 10
29.058241
 20
9.197809
 30
0.0
 40
0.0
 41
0.0
  0
SEQEND
  8
0
  5
8B
  0
POLYLINE
  8
1
  6
CONTINUOUS
 62
   250
 48
0.805031
  5
8C
 66
     1
 10
0.0
 20
0.0
 30
0.0
 70
   128
  0
VERTEX
  8
1
  6
CONTINUOUS
 62
   250
 48
0.805031
  5
8D
 10
29.058241
 20
6.91081
 30
0.0
 40
0.0
 41
0.0
  0
VERTEX
  8
1
  6
CONTINUOUS
 62
   250
 48
0.805031
  5
8E
 10
31.293239
 20
6.91081
 30
0.0
 40
0.0
 41
0.0
  0
SEQEND
  8
0
  5
8F
  0
CIRCLE
  8
1
  6
CONTINUOUS
 62
   250
 48
0.805031
  5
90
 10
-30.143241
 20
13.185809
 30
0.0
 40
0.3125
210
0.0
220
0.0
230
-1.0
  0
POLYLINE
  8
1
  6
CONTINUOUS
 62
   250
 48
0.805031
  5
91
 66
     1
 10
0.0
 20
0.0
 30
0.0
 70
   128
  0
VERTEX
  8
1
  6
CONTINUOUS
 62
   250
 48
0.805031
  5
92
 10
28.668242
 20
14.83581
 30
0.0
 40
0.0
 41
0.0
  0
VERTEX
  8
1
  6
CONTINUOUS
 62
   250
 48
0.805031
  5
93
 10
28.418242
 20
14.58581
 30
0.0
 40
0.0
 41
0.0
  0
SEQEND
  8
0
  5
94
  0
POLYLINE
  8
1
  6
CONTINUOUS
 62
   250
 48
0.805031
  5
95
 66
     1
 10
0.0
 20
0.0
 30
0.0
 70
   128
  0
VERTEX
  8
1
  6
CONTINUOUS
 62
   250
 48
0.805031
  5
96
 10
28.418242
 20
14.58581
 30
0.0
 40
0.0
 41
0.0
  0
VERTEX
  8
1
  6
CONTINUOUS
 62
   250
 48
0.805031
  5
97
 10
28.418242
 20
9.58581
 30
0.0
 40
0.0
 41
0.0
  0
SEQEND
  8
0
  5
98
  0
POLYLINE
  8
1
  6
CONTINUOUS
 62
   250
 48
0.805031
  5
99
 66
     1
 10
0.0
 20
0.0
 30
0.0
 70
   128
  0
VERTEX
  8
1
  6
CONTINUOUS
 62
   250
 48
0.805031
  5
9A
 10
28.668242
 20
14.83581
 30
0.0
 40
0.0
 41
0.0
  0
VERTEX
  8
1
  6
CONTINUOUS
 62
   250
 48
0.805031
  5
9B
 10
31.618241
 20
14.83581
 30
0.0
 40
0.0
 41
0.0
  0
SEQEND
  8
0
  5
9C
  0
POLYLINE
  8
1
  6
CONTINUOUS
 62
   250
 48
0.805031
  5
9D
 66
     1
 10
0.0
 20
0.0
 30
0.0
 70
   128
  0
VERTEX
  8
1
  6
CONTINUOUS
 62
   250
 48
0.805031
  5
9E
 10
31.618241
 20
14.83581
 30
0.0
 40
0.0
 41
0.0
  0
VERTEX
  8
1
  6
CONTINUOUS
 62
   250
 48
0.805031
  5
9F
 10
31.868241
 20
14.58581
 30
0.0
 40
0.0
 41
0.0
  0
SEQEND
  8
0
  5
A0
  0
POLYLINE
  8
1
  6
CONTINUOUS
 62
   250
 48
0.805031
  5
A1
 66
     1
 10
0.0
 20
0.0
 30
0.0
 70
   128
  0
VERTEX
  8
1
  6
CONTINUOUS
 62
   250
 48
0.805031
  5
A2
 10
31.868241
 20
14.58581
 30
0.0
 40
0.0
 41
0.0
  0
VERTEX
  8
1
  6
CONTINUOUS
 62
   250
 48
0.805031
  5
A3
 10
31.868241
 20
9.58581
 30
0.0
 40
0.0
 41
0.0
  0
SEQEND
  8
0
  5
A4
  0
POLYLINE
  8
1
  6
CONTINUOUS
 62
   250
 48
0.805031
  5
A5
 66
     1
 10
0.0
 20
0.0
 30
0.0
 70
   128
  0
VERTEX
  8
1
  6
CONTINUOUS
 62
   250
 48
0.805031
  5
A6
 10
31.618241
 20
9.58581
 30
0.0
 40
0.0
 41
0.0
  0
VERTEX
  8
1
  6
CONTINUOUS
 62
   250
 48
0.805031
  5
A7
 10
31.868241
 20
9.58581
 30
0.0
 40
0.0
 41
0.0
  0
SEQEND
  8
0
  5
A8
  0
POLYLINE
  8
1
  6
CONTINUOUS
 62
   250
 48
0.805031
  5
A9
 66
     1
 10
0.0
 20
0.0
 30
0.0
 70
   128
  0
VERTEX
  8
1
  6
CONTINUOUS
 62
   250
 48
0.805031
  5
AA
 10
33.258239
 20
4.572809
 30
0.0
 40
0.0
 41
0.0
  0
VERTEX
  8
1
  6
CONTINUOUS
 62
   250
 48
0.805031
  5
AB
 10
33.258239
 20
4.572809
 30
0.0
 40
0.0
 41
0.0
  0
SEQEND
  8
0
  5
AC
  0
POLYLINE
  8
1
  6
CONTINUOUS
 62
   250
 48
0.805031
  5
AD
 66
     1
 10
0.0
 20
0.0
 30
0.0
 70
   128
  0
VERTEX
  8
1
  6
CONTINUOUS
 62
   250
 48
0.805031
  5
AE
 10
25.808241
 20
5.010309
 30
0.0
 40
0.0
 41
0.0
  0
VERTEX
  8
1
  6
CONTINUOUS
 62
   250
 48
0.805031
  5
AF
 10
26.308241
 20
4.572809
 30
0.0
 40
0.0
 41
0.0
  0
VERTEX
  8
1
  6
CONTINUOUS
 62
   250
 48
0.805031
  5
B0
 10
28.245741
 20
4.572809
 30
0.0
 40
0.0
 41
0.0
  0
SEQEND
  8
0
  5
B1
  0
POLYLINE
  8
1
  6
CONTINUOUS
 62
   250
 48
0.805031
  5
B2
 66
     1
 10
0.0
 20
0.0
 30
0.0
 70
   128
  0
VERTEX
  8
1
  6
CONTINUOUS
 62
   250
 48
0.805031
  5
B3
 10
33.258239
 20
4.572809
 30
0.0
 40
0.0
 41
0.0
  0
VERTEX
  8
1
  6
CONTINUOUS
 62
   250
 48
0.805031
  5
B4
 10
32.105742
 20
4.57281
 30
0.0
 40
0.0
 41
0.0
  0
SEQEND
  8
0
  5
B5
  0
POLYLINE
  8
1
  6
CONTINUOUS
 62
   250
 48
0.805031
  5
B6
 66
     1
 10
0.0
 20
0.0
 30
0.0
 70
   128
  0
VERTEX
  8
1
  6
CONTINUOUS
 62
   250
 48
0.805031
  5
B7
 10
28.245741
 20
4.572809
 30
0.0
 40
0.0
 41
0.0
  0
VERTEX
  8
1
  6
CONTINUOUS
 62
   250
 48
0.805031
  5
B8
 10
32.105742
 20
4.57281
 30
0.0
 40
0.0
 41
0.0
  0
SEQEND
  8
0
  5
B9
  0
POLYLINE
  8
1
  6
CONTINUOUS
 62
    14
 48
0.25
  5
BA
 66
     1
 10
0.0
 20
0.0
 30
0.0
 70
   128
  0
VERTEX
  8
1
  6
CONTINUOUS
 62
    14
 48
0.25
  5
BB
 10
29.893241
 20
13.435809
 30
0.0
 40
0.0
 41
0.0
  0
VERTEX
  8
1
  6
CONTINUOUS
 62
    14
 48
0.25
  5
BC
 10
29.893241
 20
16.185809
 30
0.0
 40
0.0
 41
0.0
  0
SEQEND
  8
0
  5
BD
  0
POLYLINE
  8
1
  6
CONTINUOUS
 62
    14
 48
0.25
  5
BE
 66
     1
 10
0.0
 20
0.0
 30
0.0
 70
   128
  0
VERTEX
  8
1
  6
CONTINUOUS
 62
    14
 48
0.25
  5
BF
 10
30.393241
 20
13.435809
 30
0.0
 40
0.0
 41
0.0
  0
VERTEX
  8
1
  6
CONTINUOUS
 62
    14
 48
0.25
  5
C0
 10
30.393241
 20
16.185809
 30
0.0
 40
0.0
 41
0.0
  0
SEQEND
  8
0
  5
C1
  0
POLYLINE
  8
1
  6
CONTINUOUS
 62
    14
 48
0.25
  5
C2
 66
     1
 10
0.0
 20
0.0
 30
0.0
 70
   128
  0
VERTEX
  8
1
  6
CONTINUOUS
 62
    14
 48
0.25
  5
C3
 10
29.893241
 20
16.185809
 30
0.0
 40
0.0
 41
0.0
  0
VERTEX
  8
1
  6
CONTINUOUS
 62
    14
 48
0.25
  5
C4
 10
30.393241
 20
16.185809
 30
0.0
 40
0.0
 41
0.0
  0
SEQEND
  8
0
  5
C5
  0
POLYLINE
  8
1
  6
CONTINUOUS
 62
    14
 48
0.25
  5
C6
 66
     1
 10
0.0
 20
0.0
 30
0.0
 70
   128
  0
VERTEX
  8
1
  6
CONTINUOUS
 62
    14
 48
0.25
  5
C7
 10
30.143241
 20
13.185809
 30
0.0
 40
0.0
 41
0.0
  0
VERTEX
  8
1
  6
CONTINUOUS
 62
    14
 48
0.25
  5
C8
 10
30.393241
 20
13.435809
 30
0.0
 40
0.0
 41
0.0
  0
SEQEND
  8
0
  5
C9
  0
POLYLINE
  8
1
  6
CONTINUOUS
 62
    14
 48
0.25
  5
CA
 66
     1
 10
0.0
 20
0.0
 30
0.0
 70
   128
  0
VERTEX
  8
1
  6
CONTINUOUS
 62
    14
 48
0.25
  5
CB
 10
30.143241
 20
13.185809
 30
0.0
 40
0.0
 41
0.0
  0
VERTEX
  8
1
  6
CONTINUOUS
 62
    14
 48
0.25
  5
CC
 10
29.893241
 20
13.435809
 30
0.0
 40
0.0
 41
0.0
  0
SEQEND
  8
0
  5
CD
  0
POLYLINE
  8
1
  6
CONTINUOUS
 62
    14
 48
0.25
  5
CE
 66
     1
 10
0.0
 20
0.0
 30
0.0
 70
   128
  0
VERTEX
  8
1
  6
CONTINUOUS
 62
    14
 48
0.25
  5
CF
 10
30.393241
 20
13.435809
 30
0.0
 40
0.0
 41
0.0
  0
VERTEX
  8
1
  6
CONTINUOUS
 62
    14
 48
0.25
  5
D0
 10
33.143241
 20
13.435811
 30
0.0
 40
0.0
 41
0.0
  0
SEQEND
  8
0
  5
D1
  0
POLYLINE
  8
1
  6
CONTINUOUS
 62
    14
 48
0.25
  5
D2
 66
     1
 10
0.0
 20
0.0
 30
0.0
 70
   128
  0
VERTEX
  8
1
  6
CONTINUOUS
 62
    14
 48
0.25
  5
D3
 10
30.393241
 20
12.935808
 30
0.0
 40
0.0
 41
0.0
  0
VERTEX
  8
1
  6
CONTINUOUS
 62
    14
 48
0.25
  5
D4
 10
33.143241
 20
12.935809
 30
0.0
 40
0.0
 41
0.0
  0
SEQEND
  8
0
  5
D5
  0
POLYLINE
  8
1
  6
CONTINUOUS
 62
    14
 48
0.25
  5
D6
 66
     1
 10
0.0
 20
0.0
 30
0.0
 70
   128
  0
VERTEX
  8
1
  6
CONTINUOUS
 62
    14
 48
0.25
  5
D7
 10
30.393241
 20
12.935808
 30
0.0
 40
0.0
 41
0.0
  0
VERTEX
  8
1
  6
CONTINUOUS
 62
    14
 48
0.25
  5
D8
 10
30.143241
 20
13.185809
 30
0.0
 40
0.0
 41
0.0
  0
SEQEND
  8
0
  5
D9
  0
POLYLINE
  8
1
  6
CONTINUOUS
 62
    14
 48
0.25
  5
DA
 66
     1
 10
0.0
 20
0.0
 30
0.0
 70
   128
  0
VERTEX
  8
1
  6
CONTINUOUS
 62
    14
 48
0.25
  5
DB
 10
30.393241
 20
13.435809
 30
0.0
 40
0.0
 41
0.0
  0
VERTEX
  8
1
  6
CONTINUOUS
 62
    14
 48
0.25
  5
DC
 10
30.143241
 20
13.185809
 30
0.0
 40
0.0
 41
0.0
  0
SEQEND
  8
0
  5
DD
  0
POLYLINE
  8
1
  6
CONTINUOUS
 62
    14
 48
0.25
  5
DE
 66
     1
 10
0.0
 20
0.0
 30
0.0
 70
   128
  0
VERTEX
  8
1
  6
CONTINUOUS
 62
    14
 48
0.25
  5
DF
 10
33.143241
 20
13.435811
 30
0.0
 40
0.0
 41
0.0
  0
VERTEX
  8
1
  6
CONTINUOUS
 62
    14
 48
0.25
  5
E0
 10
33.143241
 20
12.935809
 30
0.0
 40
0.0
 41
0.0
  0
SEQEND
  8
0
  5
E1
  0
POLYLINE
  8
1
  6
CONTINUOUS
 62
    14
 48
0.25
  5
E2
 66
     1
 10
0.0
 20
0.0
 30
0.0
 70
   128
  0
VERTEX
  8
1
  6
CONTINUOUS
 62
    14
 48
0.25
  5
E3
 10
29.987041
 20
13.935809
 30
0.0
 40
0.0
 41
0.0
  0
VERTEX
  8
1
  6
CONTINUOUS
 62
    14
 48
0.25
  5
E4
 10
29.987041
 20
15.685809
 30
0.0
 40
0.0
 41
0.0
  0
SEQEND
  8
0
  5
E5
  0
POLYLINE
  8
1
  6
CONTINUOUS
 62
    14
 48
0.25
  5
E6
 66
     1
 10
0.0
 20
0.0
 30
0.0
 70
   128
  0
VERTEX
  8
1
  6
CONTINUOUS
 62
    14
 48
0.25
  5
E7
 10
30.299442
 20
13.935809
 30
0.0
 40
0.0
 41
0.0
  0
VERTEX
  8
1
  6
CONTINUOUS
 62
    14
 48
0.25
  5
E8
 10
30.299442
 20
15.685809
 30
0.0
 40
0.0
 41
0.0
  0
SEQEND
  8
0
  5
E9
  0
ARC
  8
1
  6
CONTINUOUS
 62
    14
 48
0.25
  5
EA
 10
-30.143241
 20
13.935809
 30
0.0
 40
0.156201
 50
180.0
 51
360.0
210
0.0
220
0.0
230
-1.0
  0
ARC
  8
1
  6
CONTINUOUS
 62
    14
 48
0.25
  5
EB
 10
-30.143241
 20
15.685809
 30
0.0
 40
0.156201
 50
0.0
 51
180.0
210
0.0
220
0.0
230
-1.0
  0
POLYLINE
  8
1
  6
CONTINUOUS
 62
    14
 48
0.25
  5
EC
 66
     1
 10
0.0
 20
0.0
 30
0.0
 70
   128
  0
VERTEX
  8
1
  6
CONTINUOUS
 62
    14
 48
0.25
  5
ED
 10
30.893241
 20
13.34201
 30
0.0
 40
0.0
 41
0.0
  0
VERTEX
  8
1
  6
CONTINUOUS
 62
    14
 48
0.25
  5
EE
 10
32.643241
 20
13.34201
 30
0.0
 40
0.0
 41
0.0
  0
SEQEND
  8
0
  5
EF
  0
POLYLINE
  8
1
  6
CONTINUOUS
 62
    14
 48
0.25
  5
F0
 66
     1
 10
0.0
 20
0.0
 30
0.0
 70
   128
  0
VERTEX
  8
1
  6
CONTINUOUS
 62
    14
 48
0.25
  5
F1
 10
30.893241
 20
13.02961
 30
0.0
 40
0.0
 41
0.0
  0
VERTEX
  8
1
  6
CONTINUOUS
 62
    14
 48
0.25
  5
F2
 10
32.643241
 20
13.02961
 30
0.0
 40
0.0
 41
0.0
  0
SEQEND
  8
0
  5
F3
  0
ARC
  8
1
  6
CONTINUOUS
 62
    14
 48
0.25
  5
F4
 10
-32.643241
 20
13.185811
 30
0.0
 40
0.156201
 50
90.0
 51
270.0
210
0.0
220
0.0
230
-1.0
  0
ARC
  8
1
  6
CONTINUOUS
 62
    14
 48
0.25
  5
F5
 10
-30.893241
 20
13.185809
 30
0.0
 40
0.156201
 50
270.0
 51
90.0
210
0.0
220
0.0
230
-1.0
  0
POLYLINE
  8
1
  6
CONTINUOUS
 62
    14
 48
0.25
  5
F6
 66
     1
 10
0.0
 20
0.0
 30
0.0
 70
   128
  0
VERTEX
  8
1
  6
CONTINUOUS
 62
    14
 48
0.25
  5
F7
 10
30.143241
 20
16.435809
 30
0.0
 40
0.0
 41
0.0
  0
VERTEX
  8
1
  6
CONTINUOUS
 62
    14
 48
0.25
  5
F8
 10
30.143241
 20
16.435809
 30
0.0
 40
0.0
 41
0.0
  0
SEQEND
  8
0
  5
F9
  0
CIRCLE
  8
1
  6
CONTINUOUS
 62
   214
 48
0.25
  5
FA
 10
-30.143241
 20
15.185809
 30
0.0
 40
0.156199
210
0.0
220
0.0
230
-1.0
  0
CIRCLE
  8
1
  6
CONTINUOUS
 62
   214
 48
0.25
  5
FB
 10
-32.143241
 20
13.185809
 30
0.0
 40
0.156201
210
0.0
220
0.0
230
-1.0
  0
POLYLINE
  8
1
  6
CONTINUOUS
 62
   214
 48
0.25
  5
FC
 66
     1
 10
0.0
 20
0.0
 30
0.0
 70
   128
  0
VERTEX
  8
1
  6
CONTINUOUS
 62
   214
 48
0.25
  5
FD
 10
31.893245
 20
13.435808
 30
0.0
 40
0.0
 41
0.0
  0
VERTEX
  8
1
  6
CONTINUOUS
 62
   214
 48
0.25
  5
FE
 10
32.393245
 20
13.435809
 30
0.0
 40
0.0
 41
0.0
  0
SEQEND
  8
0
  5
FF
  0
POLYLINE
  8
1
  6
CONTINUOUS
 62
   214
 48
0.25
  5
100
 66
     1
 10
0.0
 20
0.0
 30
0.0
 70
   128
  0
VERTEX
  8
1
  6
CONTINUOUS
 62
   214
 48
0.25
  5
101
 10
31.893245
 20
12.935808
 30
0.0
 40
0.0
 41
0.0
  0
VERTEX
  8
1
  6
CONTINUOUS
 62
   214
 48
0.25
  5
102
 10
32.393245
 20
12.935808
 30
0.0
 40
0.0
 41
0.0
  0
SEQEND
  8
0
  5
103
  0
ARC
  8
1
  6
CONTINUOUS
 62
   214
 48
0.25
  5
104
 10
-31.893245
 20
13.185808
 30
0.0
 40
0.25
 50
270.0
 51
90.0
210
0.0
220
0.0
230
-1.0
  0
ARC
  8
1
  6
CONTINUOUS
 62
   214
 48
0.25
  5
105
 10
-32.393245
 20
13.185808
 30
0.0
 40
0.25
 50
90.0
 51
270.0
210
0.0
220
0.0
230
-1.0
  0
POLYLINE
  8
1
  6
CONTINUOUS
 62
   214
 48
0.25
  5
106
 66
     1
 10
0.0
 20
0.0
 30
0.0
 70
   128
  0
VERTEX
  8
1
  6
CONTINUOUS
 62
   214
 48
0.25
  5
107
 10
29.893241
 20
14.935809
 30
0.0
 40
0.0
 41
0.0
  0
VERTEX
  8
1
  6
CONTINUOUS
 62
   214
 48
0.25
  5
108
 10
29.893241
 20
15.435809
 30
0.0
 40
0.0
 41
0.0
  0
SEQEND
  8
0
  5
109
  0
POLYLINE
  8
1
  6
CONTINUOUS
 62
   214
 48
0.25
  5
10A
 66
     1
 10
0.0
 20
0.0
 30
0.0
 70
   128
  0
VERTEX
  8
1
  6
CONTINUOUS
 62
   214
 48
0.25
  5
10B
 10
30.393241
 20
14.935809
 30
0.0
 40
0.0
 41
0.0
  0
VERTEX
  8
1
  6
CONTINUOUS
 62
   214
 48
0.25
  5
10C
 10
30.393241
 20
15.435809
 30
0.0
 40
0.0
 41
0.0
  0
SEQEND
  8
0
  5
10D
  0
ARC
  8
1
  6
CONTINUOUS
 62
   214
 48
0.25
  5
10E
 10
-30.143241
 20
15.435809
 30
0.0
 40
0.25
 50
0.0
 51
180.0
210
0.0
220
0.0
230
-1.0
  0
ARC
  8
1
  6
CONTINUOUS
 62
   214
 48
0.25
  5
10F
 10
-30.143241
 20
14.935809
 30
0.0
 40
0.25
 50
180.0
 51
360.0
210
0.0
220
0.0
230
-1.0
  0
POLYLINE
  8
1
  6
CONTINUOUS
 62
   174
 48
0.25
  5
110
 66
     1
 10
0.0
 20
0.0
 30
0.0
 70
   128
  0
VERTEX
  8
1
  6
CONTINUOUS
 62
   174
 48
0.25
  5
111
 10
33.393241
 20
13.685809
 30
0.0
 40
0.0
 41
0.0
  0
VERTEX
  8
1
  6
CONTINUOUS
 62
   174
 48
0.25
  5
112
 10
33.268241
 20
13.685809
 30
0.0
 40
0.0
 41
0.0
  0
VERTEX
  8
1
  6
CONTINUOUS
 62
   174
 48
0.25
  5
113
 10
33.268241
 20
12.685809
 30
0.0
 40
0.0
 41
0.0
  0
VERTEX
  8
1
  6
CONTINUOUS
 62
   174
 48
0.25
  5
114
 10
33.393241
 20
12.68581
 30
0.0
 40
0.0
 41
0.0
  0
VERTEX
  8
1
  6
CONTINUOUS
 62
   174
 48
0.25
  5
115
 10
33.393241
 20
13.685809
 30
0.0
 40
0.0
 41
0.0
  0
SEQEND
  8
0
  5
116
  0
POLYLINE
  8
1
  6
CONTINUOUS
 62
   174
 48
0.25
  5
117
 66
     1
 10
0.0
 20
0.0
 30
0.0
 70
   128
  0
VERTEX
  8
1
  6
CONTINUOUS
 62
   174
 48
0.25
  5
118
 10
29.643241
 20
16.435809
 30
0.0
 40
0.0
 41
0.0
  0
VERTEX
  8
1
  6
CONTINUOUS
 62
   174
 48
0.25
  5
119
 10
29.643241
 20
16.310809
 30
0.0
 40
0.0
 41
0.0
  0
VERTEX
  8
1
  6
CONTINUOUS
 62
   174
 48
0.25
  5
11A
 10
30.643241
 20
16.310809
 30
0.0
 40
0.0
 41
0.0
  0
VERTEX
  8
1
  6
CONTINUOUS
 62
   174
 48
0.25
  5
11B
 10
30.643241
 20
16.435809
 30
0.0
 40
0.0
 41
0.0
  0
VERTEX
  8
1
  6
CONTINUOUS
 62
   174
 48
0.25
  5
11C
 10
29.643241
 20
16.435809
 30
0.0
 40
0.0
 41
0.0
  0
SEQEND
  8
0
  5
11D
  0
POLYLINE
  8
1
  6
CONTINUOUS
 62
   134
 48
0.25
  5
11E
 66
     1
 10
0.0
 20
0.0
 30
0.0
 70
   128
  0
VERTEX
  8
1
  6
CONTINUOUS
 62
   134
 48
0.25
  5
11F
 10
30.018241
 20
16.310809
 30
0.0
 40
0.0
 41
0.0
  0
VERTEX
  8
1
  6
CONTINUOUS
 62
   134
 48
0.25
  5
120
 10
30.018241
 20
16.185809
 30
0.0
 40
0.0
 41
0.0
  0
VERTEX
  8
1
  6
CONTINUOUS
 62
   134
 48
0.25
  5
121
 10
30.268241
 20
16.185809
 30
0.0
 40
0.0
 41
0.0
  0
VERTEX
  8
1
  6
CONTINUOUS
 62
   134
 48
0.25
  5
122
 10
30.268241
 20
16.310809
 30
0.0
 40
0.0
 41
0.0
  0
SEQEND
  8
0
  5
123
  0
POLYLINE
  8
1
  6
CONTINUOUS
 62
   134
 48
0.25
  5
124
 66
     1
 10
0.0
 20
0.0
 30
0.0
 70
   128
  0
VERTEX
  8
1
  6
CONTINUOUS
 62
   134
 48
0.25
  5
125
 10
30.068243
 20
16.185809
 30
0.0
 40
0.0
 41
0.0
  0
VERTEX
  8
1
  6
CONTINUOUS
 62
   134
 48
0.25
  5
126
 10
30.068243
 20
14.185809
 30
0.0
 40
0.0
 41
0.0
  0
VERTEX
  8
1
  6
CONTINUOUS
 62
   134
 48
0.25
  5
127
 10
30.218243
 20
14.185809
 30
0.0
 40
0.0
 41
0.0
  0
VERTEX
  8
1
  6
CONTINUOUS
 62
   134
 48
0.25
  5
128
 10
30.218243
 20
16.185809
 30
0.0
 40
0.0
 41
0.0
  0
SEQEND
  8
0
  5
129
  0
POLYLINE
  8
1
  6
CONTINUOUS
 62
   134
 48
0.25
  5
12A
 66
     1
 10
0.0
 20
0.0
 30
0.0
 70
   128
  0
VERTEX
  8
1
  6
CONTINUOUS
 62
   134
 48
0.25
  5
12B
 10
33.143238
 20
13.260808
 30
0.0
 40
0.0
 41
0.0
  0
VERTEX
  8
1
  6
CONTINUOUS
 62
   134
 48
0.25
  5
12C
 10
31.143238
 20
13.260808
 30
0.0
 40
0.0
 41
0.0
  0
VERTEX
  8
1
  6
CONTINUOUS
 62
   134
 48
0.25
  5
12D
 10
31.143241
 20
13.110809
 30
0.0
 40
0.0
 41
0.0
  0
VERTEX
  8
1
  6
CONTINUOUS
 62
   134
 48
0.25
  5
12E
 10
33.143241
 20
13.110809
 30
0.0
 40
0.0
 41
0.0
  0
SEQEND
  8
0
  5
12F
  0
POLYLINE
  8
1
  6
CONTINUOUS
 62
   174
 48
0.25
  5
130
 66
     1
 10
0.0
 20
0.0
 30
0.0
 70
   128
  0
VERTEX
  8
1
  6
CONTINUOUS
 62
   174
 48
0.25
  5
131
 10
34.643241
 20
13.185809
 30
0.0
 40
0.0
 41
0.0
  0
VERTEX
  8
1
  6
CONTINUOUS
 62
   174
 48
0.25
  5
132
 10
35.393241
 20
13.185809
 30
0.0
 40
0.0
 41
0.0
  0
SEQEND
  8
0
  5
133
  0
POLYLINE
  8
1
  6
CONTINUOUS
 62
   174
 48
0.25
  5
134
 66
     1
 10
0.0
 20
0.0
 30
0.0
 70
   128
  0
VERTEX
  8
1
  6
CONTINUOUS
 62
   174
 48
0.25
  5
135
 10
34.643241
 20
13.185809
 30
0.0
 40
0.0
 41
0.0
  0
VERTEX
  8
1
  6
CONTINUOUS
 62
   174
 48
0.25
  5
136
 10
34.643241
 20
15.685809
 30
0.0
 40
0.0
 41
0.0
  0
VERTEX
  8
1
  6
CONTINUOUS
 62
   174
 48
0.25
  5
137
 10
35.393241
 20
15.685809
 30
0.0
 40
0.0
 41
0.0
  0
VERTEX
  8
1
  6
CONTINUOUS
 62
   174
 48
0.25
  5
138
 10
35.393241
 20
13.185809
 30
0.0
 40
0.0
 41
0.0
  0
SEQEND
  8
0
  5
139
  0
POLYLINE
  8
1
  6
CONTINUOUS
 62
   174
 48
0.25
  5
13A
 66
     1
 10
0.0
 20
0.0
 30
0.0
 70
   128
  0
VERTEX
  8
1
  6
CONTINUOUS
 62
   174
 48
0.25
  5
13B
 10
35.393241
 20
10.185809
 30
0.0
 40
0.0
 41
0.0
  0
VERTEX
  8
1
  6
CONTINUOUS
 62
   174
 48
0.25
  5
13C
 10
35.393241
 20
13.185809
 30
0.0
 40
0.0
 41
0.0
  0
SEQEND
  8
0
  5
13D
  0
POLYLINE
  8
1
  6
CONTINUOUS
 62
   174
 48
0.25
  5
13E
 66
     1
 10
0.0
 20
0.0
 30
0.0
 70
   128
  0
VERTEX
  8
1
  6
CONTINUOUS
 62
   174
 48
0.25
  5
13F
 10
34.643241
 20
13.185809
 30
0.0
 40
0.0
 41
0.0
  0
VERTEX
  8
1
  6
CONTINUOUS
 62
   174
 48
0.25
  5
140
 10
34.643241
 20
10.185809
 30
0.0
 40
0.0
 41
0.0
  0
SEQEND
  8
0
  5
141
  0
POLYLINE
  8
1
  6
CONTINUOUS
 62
   174
 48
0.25
  5
142
 66
     1
 10
0.0
 20
0.0
 30
0.0
 70
   128
  0
VERTEX
  8
1
  6
CONTINUOUS
 62
   174
 48
0.25
  5
143
 10
35.393241
 20
10.185809
 30
0.0
 40
0.0
 41
0.0
  0
VERTEX
  8
1
  6
CONTINUOUS
 62
   174
 48
0.25
  5
144
 10
34.643241
 20
10.185809
 30
0.0
 40
0.0
 41
0.0
  0
SEQEND
  8
0
  5
145
  0
POLYLINE
  8
1
  6
CONTINUOUS
 62
    14
 48
0.25
  5
146
 66
     1
 10
0.0
 20
0.0
 30
0.0
 70
   128
  0
VERTEX
  8
1
  6
CONTINUOUS
 62
    14
 48
0.25
  5
147
 10
35.268241
 20
15.685809
 30
0.0
 40
0.0
 41
0.0
  0
VERTEX
  8
1
  6
CONTINUOUS
 62
    14
 48
0.25
  5
148
 10
35.268241
 20
15.685809
 30
0.0
 40
0.0
 41
0.0
  0
SEQEND
  8
0
  5
149
  0
POLYLINE
  8
1
  6
CONTINUOUS
 62
    14
 48
0.25
  5
14A
 66
     1
 10
0.0
 20
0.0
 30
0.0
 70
   128
  0
VERTEX
  8
1
  6
CONTINUOUS
 62
    14
 48
0.25
  5
14B
 10
35.268241
 20
16.185809
 30
0.0
 40
0.0
 41
0.0
  0
VERTEX
  8
1
  6
CONTINUOUS
 62
    14
 48
0.25
  5
14C
 10
34.955741
 20
16.185809
 30
0.0
 40
0.0
 41
0.0
  0
SEQEND
  8
0
  5
14D
  0
POLYLINE
  8
1
  6
CONTINUOUS
 62
    14
 48
0.25
  5
14E
 66
     1
 10
0.0
 20
0.0
 30
0.0
 70
   128
  0
VERTEX
  8
1
  6
CONTINUOUS
 62
    14
 48
0.25
  5
14F
 10
34.955741
 20
16.185809
 30
0.0
 40
0.0
 41
0.0
  0
VERTEX
  8
1
  6
CONTINUOUS
 62
    14
 48
0.25
  5
150
 10
34.955741
 20
13.185809
 30
0.0
 40
0.0
 41
0.0
  0
SEQEND
  8
0
  5
151
  0
POLYLINE
  8
1
  6
CONTINUOUS
 62
    14
 48
0.25
  5
152
 66
     1
 10
0.0
 20
0.0
 30
0.0
 70
   128
  0
VERTEX
  8
1
  6
CONTINUOUS
 62
    14
 48
0.25
  5
153
 10
35.268241
 20
16.185809
 30
0.0
 40
0.0
 41
0.0
  0
VERTEX
  8
1
  6
CONTINUOUS
 62
    14
 48
0.25
  5
154
 10
35.268241
 20
13.185809
 30
0.0
 40
0.0
 41
0.0
  0
SEQEND
  8
0
  5
155
  0
POLYLINE
  8
1
  6
CONTINUOUS
 62
   174
 48
0.25
  5
156
 66
     1
 10
0.0
 20
0.0
 30
0.0
 70
   128
  0
VERTEX
  8
1
  6
CONTINUOUS
 62
   174
 48
0.25
  5
157
 10
35.111991
 20
16.435809
 30
0.0
 40
0.0
 41
0.0
  0
VERTEX
  8
1
  6
CONTINUOUS
 62
   174
 48
0.25
  5
158
 10
35.111991
 20
16.435809
 30
0.0
 40
0.0
 41
0.0
  0
SEQEND
  8
0
  5
159
  0
POLYLINE
  8
1
  6
CONTINUOUS
 62
   174
 48
0.25
  5
15A
 66
     1
 10
0.0
 20
0.0
 30
0.0
 70
   128
  0
VERTEX
  8
1
  6
CONTINUOUS
 62
   174
 48
0.25
  5
15B
 10
34.611991
 20
16.435809
 30
0.0
 40
0.0
 41
0.0
  0
VERTEX
  8
1
  6
CONTINUOUS
 62
   174
 48
0.25
  5
15C
 10
34.611991
 20
16.310809
 30
0.0
 40
0.0
 41
0.0
  0
VERTEX
  8
1
  6
CONTINUOUS
 62
   174
 48
0.25
  5
15D
 10
35.611991
 20
16.310809
 30
0.0
 40
0.0
 41
0.0
  0
VERTEX
  8
1
  6
CONTINUOUS
 62
   174
 48
0.25
  5
15E
 10
35.611991
 20
16.435809
 30
0.0
 40
0.0
 41
0.0
  0
VERTEX
  8
1
  6
CONTINUOUS
 62
   174
 48
0.25
  5
15F
 10
34.611991
 20
16.435809
 30
0.0
 40
0.0
 41
0.0
  0
SEQEND
  8
0
  5
160
  0
POLYLINE
  8
1
  6
CONTINUOUS
 62
   134
 48
0.25
  5
161
 66
     1
 10
0.0
 20
0.0
 30
0.0
 70
   128
  0
VERTEX
  8
1
  6
CONTINUOUS
 62
   134
 48
0.25
  5
162
 10
34.986991
 20
16.310809
 30
0.0
 40
0.0
 41
0.0
  0
VERTEX
  8
1
  6
CONTINUOUS
 62
   134
 48
0.25
  5
163
 10
34.986991
 20
16.185809
 30
0.0
 40
0.0
 41
0.0
  0
VERTEX
  8
1
  6
CONTINUOUS
 62
   134
 48
0.25
  5
164
 10
35.236991
 20
16.185809
 30
0.0
 40
0.0
 41
0.0
  0
VERTEX
  8
1
  6
CONTINUOUS
 62
   134
 48
0.25
  5
165
 10
35.236991
 20
16.310809
 30
0.0
 40
0.0
 41
0.0
  0
SEQEND
  8
0
  5
166
  0
POLYLINE
  8
1
  6
CONTINUOUS
 62
   134
 48
0.25
  5
167
 66
     1
 10
0.0
 20
0.0
 30
0.0
 70
   128
  0
VERTEX
  8
1
  6
CONTINUOUS
 62
   134
 48
0.25
  5
168
 10
35.036993
 20
16.185809
 30
0.0
 40
0.0
 41
0.0
  0
VERTEX
  8
1
  6
CONTINUOUS
 62
   134
 48
0.25
  5
169
 10
35.036993
 20
14.185809
 30
0.0
 40
0.0
 41
0.0
  0
VERTEX
  8
1
  6
CONTINUOUS
 62
   134
 48
0.25
  5
16A
 10
35.186993
 20
14.185809
 30
0.0
 40
0.0
 41
0.0
  0
VERTEX
  8
1
  6
CONTINUOUS
 62
   134
 48
0.25
  5
16B
 10
35.186993
 20
16.185809
 30
0.0
 40
0.0
 41
0.0
  0
SEQEND
  8
0
  5
16C
  0
POLYLINE
  8
1
  6
CONTINUOUS
 62
   134
 48
0.25
  5
16D
 66
     1
 10
0.0
 20
0.0
 30
0.0
 70
   128
  0
VERTEX
  8
1
  6
CONTINUOUS
 62
   134
 48
0.25
  5
16E
 10
35.393241
 20
15.185809
 30
0.0
 40
0.0
 41
0.0
  0
VERTEX
  8
1
  6
CONTINUOUS
 62
   134
 48
0.25
  5
16F
 10
35.393241
 20
15.185809
 30
0.0
 40
0.0
 41
0.0
  0
SEQEND
  8
0
  5
170
  0
POLYLINE
  8
1
  6
CONTINUOUS
 62
   214
 48
0.25
  5
171
 66
     1
 10
0.0
 20
0.0
 30
0.0
 70
   128
  0
VERTEX
  8
1
  6
CONTINUOUS
 62
   214
 48
0.25
  5
172
 10
35.243241
 20
15.342009
 30
0.0
 40
0.0
 41
0.0
  0
VERTEX
  8
1
  6
CONTINUOUS
 62
   214
 48
0.25
  5
173
 10
34.143241
 20
15.342009
 30
0.0
 40
0.0
 41
0.0
  0
VERTEX
  8
1
  6
CONTINUOUS
 62
   214
 48
0.25
  5
174
 10
34.143241
 20
15.029509
 30
0.0
 40
0.0
 41
0.0
  0
VERTEX
  8
1
  6
CONTINUOUS
 62
   214
 48
0.25
  5
175
 10
35.268241
 20
15.029509
 30
0.0
 40
0.0
 41
0.0
  0
SEQEND
  8
0
  5
176
  0
POLYLINE
  8
1
  6
CONTINUOUS
 62
   214
 48
0.25
  5
177
 66
     1
 10
0.0
 20
0.0
 30
0.0
 70
   128
  0
VERTEX
  8
1
  6
CONTINUOUS
 62
   214
 48
0.25
  5
178
 10
35.393241
 20
15.685809
 30
0.0
 40
0.0
 41
0.0
  0
VERTEX
  8
1
  6
CONTINUOUS
 62
   214
 48
0.25
  5
179
 10
35.393241
 20
14.685809
 30
0.0
 40
0.0
 41
0.0
  0
VERTEX
  8
1
  6
CONTINUOUS
 62
   214
 48
0.25
  5
17A
 10
35.268241
 20
14.685809
 30
0.0
 40
0.0
 41
0.0
  0
VERTEX
  8
1
  6
CONTINUOUS
 62
   214
 48
0.25
  5
17B
 10
35.268241
 20
15.685809
 30
0.0
 40
0.0
 41
0.0
  0
VERTEX
  8
1
  6
CONTINUOUS
 62
   214
 48
0.25
  5
17C
 10
35.393241
 20
15.685809
 30
0.0
 40
0.0
 41
0.0
  0
SEQEND
  8
0
  5
17D
  0
POLYLINE
  8
1
  6
CONTINUOUS
 62
   214
 48
0.25
  5
17E
 66
     1
 10
0.0
 20
0.0
 30
0.0
 70
   128
  0
VERTEX
  8
1
  6
CONTINUOUS
 62
   214
 48
0.25
  5
17F
 10
34.143241
 20
15.435759
 30
0.0
 40
0.0
 41
0.0
  0
VERTEX
  8
1
  6
CONTINUOUS
 62
   214
 48
0.25
  5
180
 10
34.518241
 20
15.435759
 30
0.0
 40
0.0
 41
0.0
  0
VERTEX
  8
1
  6
CONTINUOUS
 62
   214
 48
0.25
  5
181
 10
34.518241
 20
14.935759
 30
0.0
 40
0.0
 41
0.0
  0
VERTEX
  8
1
  6
CONTINUOUS
 62
   214
 48
0.25
  5
182
 10
34.143241
 20
14.935759
 30
0.0
 40
0.0
 41
0.0
  0
VERTEX
  8
1
  6
CONTINUOUS
 62
   214
 48
0.25
  5
183
 10
34.143241
 20
15.435759
 30
0.0
 40
0.0
 41
0.0
  0
SEQEND
  8
0
  5
184
  0
POLYLINE
  8
1
  6
CONTINUOUS
 62
   214
 48
0.25
  5
185
 66
     1
 10
0.0
 20
0.0
 30
0.0
 70
   128
  0
VERTEX
  8
1
  6
CONTINUOUS
 62
   214
 48
0.25
  5
186
 10
34.643241
 20
15.185809
 30
0.0
 40
0.0
 41
0.0
  0
VERTEX
  8
1
  6
CONTINUOUS
 62
   214
 48
0.25
  5
187
 10
34.643241
 20
15.185809
 30
0.0
 40
0.0
 41
0.0
  0
SEQEND
  8
0
  5
188
  0
POLYLINE
  8
1
  6
CONTINUOUS
 62
   214
 48
0.25
  5
189
 66
     1
 10
0.0
 20
0.0
 30
0.0
 70
   128
  0
VERTEX
  8
1
  6
CONTINUOUS
 62
   214
 48
0.25
  5
18A
 10
34.643241
 20
15.560809
 30
0.0
 40
0.0
 41
0.0
  0
VERTEX
  8
1
  6
CONTINUOUS
 62
   214
 48
0.25
  5
18B
 10
34.518241
 20
15.560809
 30
0.0
 40
0.0
 41
0.0
  0
VERTEX
  8
1
  6
CONTINUOUS
 62
   214
 48
0.25
  5
18C
 10
34.518241
 20
14.810809
 30
0.0
 40
0.0
 41
0.0
  0
VERTEX
  8
1
  6
CONTINUOUS
 62
   214
 48
0.25
  5
18D
 10
34.643241
 20
14.810809
 30
0.0
 40
0.0
 41
0.0
  0
VERTEX
  8
1
  6
CONTINUOUS
 62
   214
 48
0.25
  5
18E
 10
34.643241
 20
15.560809
 30
0.0
 40
0.0
 41
0.0
  0
SEQEND
  8
0
  5
18F
  0
CIRCLE
  8
1
  6
CONTINUOUS
 62
   250
 48
0.805031
  5
190
 10
-30.143241
 20
13.185809
 30
0.0
 40
1.574999
210
0.0
220
0.0
230
-1.0
  0
POLYLINE
  8
1
  6
CONTINUOUS
 62
   250
 48
0.25
  5
191
 66
     1
 10
0.0
 20
0.0
 30
0.0
 70
   128
  0
VERTEX
  8
1
  6
CONTINUOUS
 62
   250
 48
0.25
  5
192
 10
31.643241
 20
13.185809
 30
0.0
 40
0.0
 41
0.0
  0
VERTEX
  8
1
  6
CONTINUOUS
 62
   250
 48
0.25
  5
193
 10
31.643241
 20
13.185809
 30
0.0
 40
0.0
 41
0.0
  0
SEQEND
  8
0
  5
194
  0
ARC
  8
1
  6
CONTINUOUS
 62
   174
 48
0.25
  5
195
 10
-30.143241
 20
13.185809
 30
0.0
 40
1.5
 50
90.0
 51
180.0
210
0.0
220
0.0
230
-1.0
  0
ARC
  8
1
  6
CONTINUOUS
 62
   174
 48
0.25
  5
196
 10
-30.143241
 20
13.185809
 30
0.0
 40
2.5
 50
90.0
 51
180.0
210
0.0
220
0.0
230
-1.0
  0
POLYLINE
  8
1
  6
CONTINUOUS
 62
   174
 48
0.25
  5
197
 66
     1
 10
0.0
 20
0.0
 30
0.0
 70
   128
  0
VERTEX
  8
1
  6
CONTINUOUS
 62
   174
 48
0.25
  5
198
 10
30.143241
 20
15.685809
 30
0.0
 40
0.0
 41
0.0
  0
VERTEX
  8
1
  6
CONTINUOUS
 62
   174
 48
0.25
  5
199
 10
29.518241
 20
15.685809
 30
0.0
 40
0.0
 41
0.0
  0
VERTEX
  8
1
  6
CONTINUOUS
 62
   174
 48
0.25
  5
19A
 10
29.518241
 20
14.685809
 30
0.0
 40
0.0
 41
0.0
  0
VERTEX
  8
1
  6
CONTINUOUS
 62
   174
 48
0.25
  5
19B
 10
30.143241
 20
14.685809
 30
0.0
 40
0.0
 41
0.0
  0
SEQEND
  8
0
  5
19C
  0
POLYLINE
  8
1
  6
CONTINUOUS
 62
   250
 48
0.25
  5
19D
 66
     1
 10
0.0
 20
0.0
 30
0.0
 70
   128
  0
VERTEX
  8
1
  6
CONTINUOUS
 62
   250
 48
0.25
  5
19E
 10
33.393241
 20
13.185809
 30
0.0
 40
0.0
 41
0.0
  0
VERTEX
  8
1
  6
CONTINUOUS
 62
   250
 48
0.25
  5
19F
 10
33.393241
 20
13.185809
 30
0.0
 40
0.0
 41
0.0
  0
SEQEND
  8
0
  5
1A0
  0
POLYLINE
  8
1
  6
CONTINUOUS
 62
   174
 48
0.25
  5
1A1
 66
     1
 10
0.0
 20
0.0
 30
0.0
 70
   128
  0
VERTEX
  8
1
  6
CONTINUOUS
 62
   174
 48
0.25
  5
1A2
 10
31.643241
 20
13.185809
 30
0.0
 40
0.0
 41
0.0
  0
VERTEX
  8
1
  6
CONTINUOUS
 62
   174
 48
0.25
  5
1A3
 10
31.643241
 20
10.685809
 30
0.0
 40
0.0
 41
0.0
  0
SEQEND
  8
0
  5
1A4
  0
POLYLINE
  8
1
  6
CONTINUOUS
 62
   174
 48
0.25
  5
1A5
 66
     1
 10
0.0
 20
0.0
 30
0.0
 70
   128
  0
VERTEX
  8
1
  6
CONTINUOUS
 62
   174
 48
0.25
  5
1A6
 10
32.643241
 20
10.185809
 30
0.0
 40
0.0
 41
0.0
  0
VERTEX
  8
1
  6
CONTINUOUS
 62
   174
 48
0.25
  5
1A7
 10
32.643241
 20
13.185809
 30
0.0
 40
0.0
 41
0.0
  0
SEQEND
  8
0
  5
1A8
  0
POLYLINE
  8
1
  6
CONTINUOUS
 62
   174
 48
0.25
  5
1A9
 66
     1
 10
0.0
 20
0.0
 30
0.0
 70
   128
  0
VERTEX
  8
1
  6
CONTINUOUS
 62
   174
 48
0.25
  5
1AA
 10
32.643241
 20
10.185809
 30
0.0
 40
0.0
 41
0.0
  0
VERTEX
  8
1
  6
CONTINUOUS
 62
   174
 48
0.25
  5
1AB
 10
30.643241
 20
10.185809
 30
0.0
 40
0.0
 41
0.0
  0
VERTEX
  8
1
  6
CONTINUOUS
 62
   174
 48
0.25
  5
1AC
 10
30.643241
 20
10.685809
 30
0.0
 40
0.0
 41
0.0
  0
VERTEX
  8
1
  6
CONTINUOUS
 62
   174
 48
0.25
  5
1AD
 10
31.643241
 20
10.685809
 30
0.0
 40
0.0
 41
0.0
  0
SEQEND
  8
0
  5
1AE
  0
ENDSEC
  0
EOF
