  0
SECTION
  2
HEADER
  9
$ACADVER
  1
AC1009
  9
$INSBASE
 10
0.0
 20
0.0
 30
0.0
  9
$EXTMIN
 10
25.558241
 20
4.572809
 30
0.0
  9
$EXTMAX
 10
35.611991
 20
16.435809
 30
0.0
  9
$LIMMIN
 10
0.0
 20
0.0
  9
$LIMMAX
 10
0.0
 20
0.0
  9
$ORTHOMODE
 70
     0
  9
$REGENMODE
 70
     1
  9
$FILLMODE
 70
     1
  9
$QTEXTMODE
 70
     0
  9
$MIRRTEXT
 70
     1
  9
$DRAGMODE
 70
     2
  9
$LTSCALE
 40
1.0
  9
$OSMODE
 70
     0
  9
$ATTMODE
 70
     1
  9
$TEXTSIZE
 40
0.2
  9
$TRACEWID
 40
0.05
  9
$TEXTSTYLE
  7
STANDARD
  9
$CLAYER
  8
0
  9
$CELTYPE
  6
CONTINUOUS
  9
$CECOLOR
 62
   256
  9
$DIMSCALE
 40
1.0
  9
$DIMASZ
 40
0.18
  9
$DIMEXO
 40
0.0625
  9
$DIMDLI
 40
0.38
  9
$DIMRND
 40
0.0
  9
$DIMDLE
 40
0.0
  9
$DIMEXE
 40
0.18
  9
$DIMTP
 40
0.0
  9
$DIMTM
 40
0.0
  9
$DIMTXT
 40
0.18
  9
$DIMCEN
 40
0.09
  9
$DIMTSZ
 40
0.0
  9
$DIMTOL
 70
     0
  9
$DIMLIM
 70
     0
  9
$DIMTIH
 70
     1
  9
$DIMTOH
 70
     1
  9
$DIMSE1
 70
     0
  9
$DIMSE2
 70
     0
  9
$DIMTAD
 70
     0
  9
$DIMZIN
 70
     0
  9
$DIMBLK
  1

  9
$DIMASO
 70
     1
  9
$DIMSHO
 70
     1
  9
$DIMPOST
  1

  9
$DIMAPOST
  1

  9
$DIMALT
 70
     0
  9
$DIMALTD
 70
     2
  9
$DIMALTF
 40
25.4
  9
$DIMLFAC
 40
1.0
  9
$DIMTOFL
 70
     0
  9
$DIMTVP
 40
0.0
  9
$DIMTIX
 70
     0
  9
$DIMSOXD
 70
     0
  9
$DIMSAH
 70
     0
  9
$DIMBLK1
  1

  9
$DIMBLK2
  1

  9
$DIMSTYLE
  2
STANDARD
  9
$DIMCLRD
 70
     0
  9
$DIMCLRE
 70
     0
  9
$DIMCLRT
 70
     0
  9
$DIMTFAC
 40
1.0
  9
$DIMGAP
 40
0.09
  9
$LUNITS
 70
     2
  9
$LUPREC
 70
     4
  9
$AXISMODE
 70
     0
  9
$AXISUNIT
 10
0.0
 20
0.0
  9
$SKETCHINC
 40
0.1
  9
$FILLETRAD
 40
0.0
  9
$AUNITS
 70
     0
  9
$AUPREC
 70
     0
  9
$MENU
  1
acad
  9
$ELEVATION
 40
0.0
  9
$PELEVATION
 40
0.0
  9
$THICKNESS
 40
0.0
  9
$LIMCHECK
 70
     0
  9
$BLIPMODE
 70
     1
  9
$CHAMFERA
 40
0.0
  9
$CHAMFERB
 40
0.0
  9
$SKPOLY
 70
     0
  9
$TDCREATE
 40
0.000000000
  9
$TDUPDATE
 40
0.000000000
  9
$TDINDWG
 40
0.0000000000
  9
$TDUSRTIMER
 40
0.0000000000
  9
$USRTIMER
 70
     1
  9
$ANGBASE
 50
0.0
  9
$ANGDIR
 70
     0
  9
$PDMODE
 70
     0
  9
$PDSIZE
 40
0.0
  9
$PLINEWID
 40
0.0
  9
$COORDS
 70
     0
  9
$SPLFRAME
 70
     0
  9
$SPLINETYPE
 70
     6
  9
$SPLINESEGS
 70
     8
  9
$ATTDIA
 70
     0
  9
$ATTREQ
 70
     1
  9
$HANDLING
 70
     1
  9
$HANDSEED
  5
259
  9
$SURFTAB1
 70
     6
  9
$SURFTAB2
 70
     6
  9
$SURFTYPE
 70
     6
  9
$SURFU
 70
     6
  9
$SURFV
 70
     6
  9
$UCSNAME
  2

  9
$UCSORG
 10
0.0
 20
0.0
 30
0.0
  9
$UCSXDIR
 10
1.0
 20
0.0
 30
0.0
  9
$UCSYDIR
 10
0.0
 20
1.0
 30
0.0
  9
$PUCSNAME
  2

  9
$PUCSORG
 10
0.0
 20
0.0
 30
0.0
  9
$PUCSXDIR
 10
1.0
 20
0.0
 30
0.0
  9
$PUCSYDIR
 10
0.0
 20
1.0
 30
0.0
  9
$USERI1
 70
     0
  9
$USERI2
 70
     0
  9
$USERI3
 70
     0
  9
$USERI4
 70
     0
  9
$USERI5
 70
     0
  9
$USERR1
 40
0.0
  9
$USERR2
 40
0.0
  9
$USERR3
 40
0.0
  9
$USERR4
 40
0.0
  9
$USERR5
 40
0.0
  9
$WORLDVIEW
 70
     1
  9
$SHADEDGE
 70
     3
  9
$SHADEDIF
 70
    70
  9
$TILEMODE
 70
     1
  9
$MAXACTVP
 70
    16
  9
$PINSBASE
 10
0.0
 20
0.0
 30
0.0
  9
$PLIMCHECK
 70
     0
  9
$PEXTMIN
 10
1.000000E+20
 20
1.000000E+20
 30
1.000000E+20
  9
$PEXTMAX
 10
-1.000000E+20
 20
-1.000000E+20
 30
-1.000000E+20
  9
$PLIMMIN
 10
0.0
 20
0.0
  9
$PLIMMAX
 10
12.0
 20
9.0
  9
$UNITMODE
 70
     0
  9
$VISRETAIN
 70
     0
  9
$PLINEGEN
 70
     0
  9
$PSLTSCALE
 70
     0
  9
$TREEDEPTH
 70
  3020
  9
$DWGCODEPAGE
  3
dos850
  0
ENDSEC
  0
SECTION
  2
TABLES
  0
TABLE
  2
VPORT
 70
     2
  0
VPORT
  2
*ACTIVE
 70
     0
 10
0.0
 20
0.0
 11
1.0
 21
1.0
 12
6.591288
 22
4.579184
 13
0.0
 23
0.0
 14
1.0
 24
1.0
 15
0.0
 25
0.0
 16
0.0
 26
0.0
 36
1.0
 17
0.0
 27
0.0
 37
0.0
 40
9.158369
 41
0.688564
 42
50.0
 43
0.0
 44
0.0
 50
0.0
 51
0.0
 71
     0
 72
   100
 73
     1
 74
     1
 75
     0
 76
     0
 77
     0
 78
     0
  0
VPORT
  2
DCADVPORT
 70
     0
 10
25.558241
 20
4.572809
 11
35.611991
 21
16.435809
 12
6.21
 22
9.02
 13
0.0
 23
0.0
 14
1.0
 24
1.0
 15
0.0
 25
0.0
 16
0.0
 26
0.0
 36
1.0
 17
0.0
 27
0.0
 37
0.0
 40
18.04
 41
0.688564
 42
50.0
 43
1.0
 44
1.0
 50
0.0
 51
0.0
 71
     0
 72
   100
 73
     1
 74
     1
 75
     0
 76
     0
 77
     0
 78
     0
  0
ENDTAB
  0
TABLE
  2
LTYPE
 70
    13
  0
LTYPE
  2
CONTINUOUS
 70
     0
  3
Solid line
 72
    65
 73
     0
 40
0.0
  0
LTYPE
  2
CONTINUOUS
 70
     0
  3
Solid line
 72
    65
 73
     0
 40
0.0
  0
LTYPE
  2
BORDER
 70
    64
  3
__ __ . __ __ . __ __ . __ __ . __ __ . __ __ .
 72
    65
 73
     6
 40
1.75
 49
0.5
 49
-0.25
 49
0.5
 49
-0.25
 49
0.0
 49
-0.25
  0
LTYPE
  2
BORDER2
 70
    64
  3
__.__.__.__.__.__.__.__.__.__.__.__.__.__.__.__
 72
    65
 73
     6
 40
0.875
 49
0.25
 49
-0.125
 49
0.25
 49
-0.125
 49
0.0
 49
-0.125
  0
LTYPE
  2
CENTER
 70
    64
  3
____ _ ____ _ ____ _ ____ _ ____ _ ____ _ ____ 
 72
    65
 73
     4
 40
2.0
 49
1.25
 49
-0.25
 49
0.25
 49
-0.25
  0
LTYPE
  2
DASHDOT
 70
    64
  3
__ . __ . __ . __ . __ . __ . __ . __ . __ . __
 72
    65
 73
     4
 40
1.0
 49
0.5
 49
-0.25
 49
0.0
 49
-0.25
  0
LTYPE
  2
DASHDOT2
 70
    64
  3
_._._._._._._._._._._._._._._._._._._._._._._._
 72
    65
 73
     4
 40
0.5
 49
0.25
 49
-0.125
 49
0.0
 49
-0.125
  0
LTYPE
  2
DASHED
 70
    64
  3
__ __ __ __ __ __ __ __ __ __ __ __ __ __ __ __
 72
    65
 73
     2
 40
0.75
 49
0.5
 49
-0.25
  0
LTYPE
  2
DIVIDE
 70
    64
  3
____ . . ____ . . ____ . . ____ . . ____ . . __
 72
    65
 73
     6
 40
1.25
 49
0.5
 49
-0.25
 49
0.0
 49
-0.25
 49
0.0
 49
-0.25
  0
LTYPE
  2
DIVIDE2
 70
    64
  3
__..__..__..__..__..__..__..__..__..__..__..__.
 72
    65
 73
     6
 40
0.625
 49
0.25
 49
-0.125
 49
0.0
 49
-0.125
 49
0.0
 49
-0.125
  0
LTYPE
  2
DOT
 70
    64
  3
. . . . . . . . . . . . . . . . . . . . . . . .
 72
    65
 73
     2
 40
0.25
 49
0.0
 49
-0.25
  0
LTYPE
  2
HIDDEN
 70
    64
  3
__ __ __ __ __ __ __ __ __ __ __ __ __ __ __ __
 72
    65
 73
     2
 40
0.375
 49
0.25
 49
-0.125
  0
LTYPE
  2
PHANTOM
 70
    64
  3
______  __  __  ______  __  __  ______  __  __ 
 72
    65
 73
     6
 40
2.5
 49
1.25
 49
-0.25
 49
0.25
 49
-0.25
 49
0.25
 49
-0.25
  0
ENDTAB
  0
TABLE
  2
LAYER
 70
     3
  0
LAYER
  2
0
 70
     0
 62
     7
  6
CONTINUOUS
  0
LAYER
  2
1
 70
     0
 62
   250
  6
CONTINUOUS
  0
LAYER
  2
2
 70
     0
 62
   250
  6
CONTINUOUS
  0
ENDTAB
  0
TABLE
  2
STYLE
 70
     2
  0
STYLE
  2
STANDARD
 70
     0
 40
0.0
 41
1.0
 50
0.0
 71
     0
 42
0.0
  3
txt
  4

  0
STYLE
  2
BIGFONT
 70
    64
 40
3.0
 41
1.0
 50
0.0
 71
     0
 42
0.2
  3

  4
BIGFONT
  0
ENDTAB
  0
TABLE
  2
VIEW
 70
     0
  0
ENDTAB
  0
TABLE
  2
UCS
 70
     0
  0
ENDTAB
  0
TABLE
  2
APPID
 70
     1
  0
APPID
  2
ACAD
 70
     0
  0
ENDTAB
  0
TABLE
  2
DIMSTYLE
 70
     1
  0
DIMSTYLE
  2
STANDARD
 70
     0
  3

  4

  5

  6

  7

 40
1.0
 41
0.18
 42
0.0625
 43
0.38
 44
0.18
 45
0.0
 46
0.0
 47
0.0
 48
0.0
140
0.18
141
0.09
142
0.0
143
25.4
144
1.0
145
0.0
146
1.0
147
0.09
 71
     0
 72
     0
 73
     1
 74
     1
 75
     0
 76
     0
 77
     0
 78
     0
170
     0
171
     2
172
     0
173
     0
174
     0
175
     0
176
     0
177
     0
178
     0
  0
ENDTAB
  0
ENDSEC
  0
SECTION
  2
BLOCKS
  0
ENDSEC
  0
SECTION
  2
ENTITIES
  0
POLYLINE
  8
1
  6
CONTINUOUS
 62
   250
 48
0.805031
  5
2D
 66
     1
 10
0.0
 20
0.0
 30
0.0
 70
   128
  0
VERTEX
  8
1
  6
CONTINUOUS
 62
   250
 48
0.805031
  5
2E
 10
25.808241
 20
5.010309
 30
0.0
 40
0.0
 41
0.0
  0
VERTEX
  8
1
  6
CONTINUOUS
 62
   250
 48
0.805031
  5
2F
 10
25.558241
 20
5.010309
 30
0.0
 40
0.0
 41
0.0
  0
SEQEND
  8
0
  5
30
  0
POLYLINE
  8
1
  6
CONTINUOUS
 62
   250
 48
0.805031
  5
31
 66
     1
 10
0.0
 20
0.0
 30
0.0
 70
   128
  0
VERTEX
  8
1
  6
CONTINUOUS
 62
   250
 48
0.805031
  5
32
 10
29.058241
 20
5.010309
 30
0.0
 40
0.0
 41
0.0
  0
VERTEX
  8
1
  6
CONTINUOUS
 62
   250
 48
0.805031
  5
33
 10
28.245741
 20
5.010309
 30
0.0
 40
0.0
 41
0.0
  0
SEQEND
  8
0
  5
34
  0
POLYLINE
  8
1
  6
CONTINUOUS
 62
   250
 48
0.805031
  5
35
 66
     1
 10
0.0
 20
0.0
 30
0.0
 70
   128
  0
VERTEX
  8
1
  6
CONTINUOUS
 62
   250
 48
0.805031
  5
36
 10
28.245741
 20
5.010309
 30
0.0
 40
0.0
 41
0.0
  0
VERTEX
  8
1
  6
CONTINUOUS
 62
   250
 48
0.805031
  5
37
 10
28.245741
 20
4.572809
 30
0.0
 40
0.0
 41
0.0
  0
SEQEND
  8
0
  5
38
  0
POLYLINE
  8
1
  6
CONTINUOUS
 62
   250
 48
0.805031
  5
39
 66
     1
 10
0.0
 20
0.0
 30
0.0
 70
   128
  0
VERTEX
  8
1
  6
CONTINUOUS
 62
   250
 48
0.805031
  5
3A
 10
29.058241
 20
9.197809
 30
0.0
 40
0.0
 41
0.0
  0
VERTEX
  8
1
  6
CONTINUOUS
 62
   250
 48
0.805031
  5
3B
 10
28.383239
 20
9.197809
 30
0.0
 40
0.0
 41
0.0
  0
SEQEND
  8
0
  5
3C
  0
POLYLINE
  8
1
  6
CONTINUOUS
 62
   250
 48
0.805031
  5
3D
 66
     1
 10
0.0
 20
0.0
 30
0.0
 70
   128
  0
VERTEX
  8
1
  6
CONTINUOUS
 62
   250
 48
0.805031
  5
3E
 10
28.933241
 20
9.522809
 30
0.0
 40
0.0
 41
0.0
  0
VERTEX
  8
1
  6
CONTINUOUS
 62
   250
 48
0.805031
  5
3F
 10
29.058241
 20
9.522809
 30
0.0
 40
0.0
 41
0.0
  0
VERTEX
  8
1
  6
CONTINUOUS
 62
   250
 48
0.805031
  5
40
 10
29.058241
 20
9.58581
 30
0.0
 40
0.0
 41
0.0
  0
VERTEX
  8
1
  6
CONTINUOUS
 62
   250
 48
0.805031
  5
41
 10
29.668242
 20
9.58581
 30
0.0
 40
0.0
 41
0.0
  0
SEQEND
  8
0
  5
42
  0
POLYLINE
  8
1
  6
CONTINUOUS
 62
   250
 48
0.805031
  5
43
 66
     1
 10
0.0
 20
0.0
 30
0.0
 70
   128
  0
VERTEX
  8
1
  6
CONTINUOUS
 62
   250
 48
0.805031
  5
44
 10
28.933241
 20
9.622809
 30
0.0
 40
0.0
 41
0.0
  0
VERTEX
  8
1
  6
CONTINUOUS
 62
   250
 48
0.805031
  5
45
 10
28.78324
 20
9.772809
 30
0.0
 40
0.0
 41
0.0
  0
SEQEND
  8
0
  5
46
  0
POLYLINE
  8
1
  6
CONTINUOUS
 62
   250
 48
0.805031
  5
47
 66
     1
 10
0.0
 20
0.0
 30
0.0
 70
   128
  0
VERTEX
  8
1
  6
CONTINUOUS
 62
   250
 48
0.805031
  5
48
 10
28.78324
 20
9.772809
 30
0.0
 40
0.0
 41
0.0
  0
VERTEX
  8
1
  6
CONTINUOUS
 62
   250
 48
0.805031
  5
49
 10
28.53324
 20
9.772809
 30
0.0
 40
0.0
 41
0.0
  0
SEQEND
  8
0
  5
4A
  0
POLYLINE
  8
1
  6
CONTINUOUS
 62
   250
 48
0.805031
  5
4B
 66
     1
 10
0.0
 20
0.0
 30
0.0
 70
   128
  0
VERTEX
  8
1
  6
CONTINUOUS
 62
   250
 48
0.805031
  5
4C
 10
28.53324
 20
9.772809
 30
0.0
 40
0.0
 41
0.0
  0
VERTEX
  8
1
  6
CONTINUOUS
 62
   250
 48
0.805031
  5
4D
 10
28.383239
 20
9.622809
 30
0.0
 40
0.0
 41
0.0
  0
SEQEND
  8
0
  5
4E
  0
POLYLINE
  8
1
  6
CONTINUOUS
 62
   250
 48
0.805031
  5
4F
 66
     1
 10
0.0
 20
0.0
 30
0.0
 70
   128
  0
VERTEX
  8
1
  6
CONTINUOUS
 62
   250
 48
0.805031
  5
50
 10
28.383239
 20
9.622809
 30
0.0
 40
0.0
 41
0.0
  0
VERTEX
  8
1
  6
CONTINUOUS
 62
   250
 48
0.805031
  5
51
 10
28.383239
 20
9.197809
 30
0.0
 40
0.0
 41
0.0
  0
SEQEND
  8
0
  5
52
  0
POLYLINE
  8
1
  6
CONTINUOUS
 62
   250
 48
0.805031
  5
53
 66
     1
 10
0.0
 20
0.0
 30
0.0
 70
   128
  0
VERTEX
  8
1
  6
CONTINUOUS
 62
   250
 48
0.805031
  5
54
 10
28.933241
 20
9.622809
 30
0.0
 40
0.0
 41
0.0
  0
VERTEX
  8
1
  6
CONTINUOUS
 62
   250
 48
0.805031
  5
55
 10
28.933241
 20
9.522809
 30
0.0
 40
0.0
 41
0.0
  0
SEQEND
  8
0
  5
56
  0
POLYLINE
  8
1
  6
CONTINUOUS
 62
   250
 48
0.805031
  5
57
 66
     1
 10
0.0
 20
0.0
 30
0.0
 70
   128
  0
VERTEX
  8
1
  6
CONTINUOUS
 62
   250
 48
0.805031
  5
58
 10
29.668242
 20
9.58581
 30
0.0
 40
0.0
 41
0.0
  0
VERTEX
  8
1
  6
CONTINUOUS
 62
   250
 48
0.805031
  5
59
 10
29.668242
 20
9.197811
 30
0.0
 40
0.0
 41
0.0
  0
SEQEND
  8
0
  5
5A
  0
POLYLINE
  8
1
  6
CONTINUOUS
 62
   250
 48
0.805031
  5
5B
 66
     1
 10
0.0
 20
0.0
 30
0.0
 70
   128
  0
VERTEX
  8
1
  6
CONTINUOUS
 62
   250
 48
0.805031
  5
5C
 10
29.668242
 20
9.197811
 30
0.0
 40
0.0
 41
0.0
  0
VERTEX
  8
1
  6
CONTINUOUS
 62
   250
 48
0.805031
  5
5D
 10
29.393241
 20
9.197811
 30
0.0
 40
0.0
 41
0.0
  0
SEQEND
  8
0
  5
5E
  0
POLYLINE
  8
1
  6
CONTINUOUS
 62
   250
 48
0.805031
  5
5F
 66
     1
 10
0.0
 20
0.0
 30
0.0
 70
   128
  0
VERTEX
  8
1
  6
CONTINUOUS
 62
   250
 48
0.805031
  5
60
 10
29.393241
 20
8.74781
 30
0.0
 40
0.0
 41
0.0
  0
VERTEX
  8
1
  6
CONTINUOUS
 62
   250
 48
0.805031
  5
61
 10
29.393241
 20
8.74781
 30
0.0
 40
0.0
 41
0.0
  0
SEQEND
  8
0
  5
62
  0
POLYLINE
  8
1
  6
CONTINUOUS
 62
   250
 48
0.805031
  5
63
 66
     1
 10
0.0
 20
0.0
 30
0.0
 70
   128
  0
VERTEX
  8
1
  6
CONTINUOUS
 62
   250
 48
0.805031
  5
64
 10
29.393241
 20
8.74781
 30
0.0
 40
0.0
 41
0.0
  0
VERTEX
  8
1
  6
CONTINUOUS
 62
   250
 48
0.805031
  5
65
 10
29.393241
 20
9.197811
 30
0.0
 40
0.0
 41
0.0
  0
SEQEND
  8
0
  5
66
  0
POLYLINE
  8
1
  6
CONTINUOUS
 62
   250
 48
0.805031
  5
67
 66
     1
 10
0.0
 20
0.0
 30
0.0
 70
   128
  0
VERTEX
  8
1
  6
CONTINUOUS
 62
   250
 48
0.805031
  5
68
 10
30.618241
 20
9.58581
 30
0.0
 40
0.0
 41
0.0
  0
VERTEX
  8
1
  6
CONTINUOUS
 62
   250
 48
0.805031
  5
69
 10
30.618241
 20
9.19781
 30
0.0
 40
0.0
 41
0.0
  0
SEQEND
  8
0
  5
6A
  0
POLYLINE
  8
1
  6
CONTINUOUS
 62
   250
 48
0.805031
  5
6B
 66
     1
 10
0.0
 20
0.0
 30
0.0
 70
   128
  0
VERTEX
  8
1
  6
CONTINUOUS
 62
   250
 48
0.805031
  5
6C
 10
30.618241
 20
9.58581
 30
0.0
 40
0.0
 41
0.0
  0
VERTEX
  8
1
  6
CONTINUOUS
 62
   250
 48
0.805031
  5
6D
 10
31.618241
 20
9.58581
 30
0.0
 40
0.0
 41
0.0
  0
VERTEX
  8
1
  6
CONTINUOUS
 62
   250
 48
0.805031
  5
6E
 10
31.618241
 20
9.19781
 30
0.0
 40
0.0
 41
0.0
  0
SEQEND
  8
0
  5
6F
  0
POLYLINE
  8
1
  6
CONTINUOUS
 62
   250
 48
0.805031
  5
70
 66
     1
 10
0.0
 20
0.0
 30
0.0
 70
   128
  0
VERTEX
  8
1
  6
CONTINUOUS
 62
   250
 48
0.805031
  5
71
 10
30.618241
 20
9.19781
 30
0.0
 40
0.0
 41
0.0
  0
VERTEX
  8
1
  6
CONTINUOUS
 62
   250
 48
0.805031
  5
72
 10
30.868241
 20
9.19781
 30
0.0
 40
0.0
 41
0.0
  0
SEQEND
  8
0
  5
73
  0
POLYLINE
  8
1
  6
CONTINUOUS
 62
   250
 48
0.805031
  5
74
 66
     1
 10
0.0
 20
0.0
 30
0.0
 70
   128
  0
VERTEX
  8
1
  6
CONTINUOUS
 62
   250
 48
0.805031
  5
75
 10
30.868241
 20
9.19781
 30
0.0
 40
0.0
 41
0.0
  0
VERTEX
  8
1
  6
CONTINUOUS
 62
   250
 48
0.805031
  5
76
 10
30.868241
 20
8.74781
 30
0.0
 40
0.0
 41
0.0
  0
VERTEX
  8
1
  6
CONTINUOUS
 62
   250
 48
0.805031
  5
77
 10
29.393241
 20
8.74781
 30
0.0
 40
0.0
 41
0.0
  0
SEQEND
  8
0
  5
78
  0
POLYLINE
  8
1
  6
CONTINUOUS
 62
   250
 48
0.805031
  5
79
 66
     1
 10
0.0
 20
0.0
 30
0.0
 70
   128
  0
VERTEX
  8
1
  6
CONTINUOUS
 62
   250
 48
0.805031
  5
7A
 10
31.618241
 20
9.19781
 30
0.0
 40
0.0
 41
0.0
  0
VERTEX
  8
1
  6
CONTINUOUS
 62
   250
 48
0.805031
  5
7B
 10
31.293242
 20
9.19781
 30
0.0
 40
0.0
 41
0.0
  0
SEQEND
  8
0
  5
7C
  0
POLYLINE
  8
1
  6
CONTINUOUS
 62
   250
 48
0.805031
  5
7D
 66
     1
 10
0.0
 20
0.0
 30
0.0
 70
   128
  0
VERTEX
  8
1
  6
CONTINUOUS
 62
   250
 48
0.805031
  5
7E
 10
31.293242
 20
9.19781
 30
0.0
 40
0.0
 41
0.0
  0
VERTEX
  8
1
  6
CONTINUOUS
 62
   250
 48
0.805031
  5
7F
 10
31.293242
 20
5.01031
 30
0.0
 40
0.0
 41
0.0
  0
SEQEND
  8
0
  5
80
  0
POLYLINE
  8
1
  6
CONTINUOUS
 62
   250
 48
0.805031
  5
81
 66
     1
 10
0.0
 20
0.0
 30
0.0
 70
   128
  0
VERTEX
  8
1
  6
CONTINUOUS
 62
   250
 48
0.805031
  5
82
 10
31.293242
 20
5.01031
 30
0.0
 40
0.0
 41
0.0
  0
VERTEX
  8
1
  6
CONTINUOUS
 62
   250
 48
0.805031
  5
83
 10
32.105742
 20
5.01031
 30
0.0
 40
0.0
 41
0.0
  0
SEQEND
  8
0
  5
84
  0
POLYLINE
  8
1
  6
CONTINUOUS
 62
   250
 48
0.805031
  5
85
 66
     1
 10
0.0
 20
0.0
 30
0.0
 70
   128
  0
VERTEX
  8
1
  6
CONTINUOUS
 62
   250
 48
0.805031
  5
86
 10
32.105742
 20
5.01031
 30
0.0
 40
0.0
 41
0.0
  0
VERTEX
  8
1
  6
CONTINUOUS
 62
   250
 48
0.805031
  5
87
 10
32.105742
 20
4.57281
 30
0.0
 40
0.0
 41
0.0
  0
SEQEND
  8
0
  5
88
  0
POLYLINE
  8
1
  6
CONTINUOUS
 62
   250
 48
0.805031
  5
89
 66
     1
 10
0.0
 20
0.0
 30
0.0
 70
   128
  0
VERTEX
  8
1
  6
CONTINUOUS
 62
   250
 48
0.805031
  5
8A
 10
29.058241
 20
5.010309
 30
0.0
 40
0.0
 41
0.0
  0
VERTEX
  8
1
  6
CONTINUOUS
 62
   250
 48
0.805031
  5
8B
 10
29.058241
 20
9.197809
 30
0.0
 40
0.0
 41
0.0
  0
SEQEND
  8
0
  5
8C
  0
POLYLINE
  8
1
  6
CONTINUOUS
 62
   250
 48
0.805031
  5
8D
 66
     1
 10
0.0
 20
0.0
 30
0.0
 70
   128
  0
VERTEX
  8
1
  6
CONTINUOUS
 62
   250
 48
0.805031
  5
8E
 10
29.058241
 20
6.91081
 30
0.0
 40
0.0
 41
0.0
  0
VERTEX
  8
1
  6
CONTINUOUS
 62
   250
 48
0.805031
  5
8F
 10
31.293239
 20
6.91081
 30
0.0
 40
0.0
 41
0.0
  0
SEQEND
  8
0
  5
90
  0
CIRCLE
  8
1
  6
CONTINUOUS
 62
   250
 48
0.805031
  5
91
 10
-30.143241
 20
13.185809
 30
0.0
 40
1.574999
210
0.0
220
0.0
230
-1.0
  0
CIRCLE
  8
1
  6
CONTINUOUS
 62
   250
 48
0.805031
  5
92
 10
-30.143241
 20
13.185809
 30
0.0
 40
0.3125
210
0.0
220
0.0
230
-1.0
  0
POLYLINE
  8
1
  6
CONTINUOUS
 62
   250
 48
0.805031
  5
93
 66
     1
 10
0.0
 20
0.0
 30
0.0
 70
   128
  0
VERTEX
  8
1
  6
CONTINUOUS
 62
   250
 48
0.805031
  5
94
 10
28.668242
 20
14.83581
 30
0.0
 40
0.0
 41
0.0
  0
VERTEX
  8
1
  6
CONTINUOUS
 62
   250
 48
0.805031
  5
95
 10
28.418242
 20
14.58581
 30
0.0
 40
0.0
 41
0.0
  0
SEQEND
  8
0
  5
96
  0
POLYLINE
  8
1
  6
CONTINUOUS
 62
   250
 48
0.805031
  5
97
 66
     1
 10
0.0
 20
0.0
 30
0.0
 70
   128
  0
VERTEX
  8
1
  6
CONTINUOUS
 62
   250
 48
0.805031
  5
98
 10
28.418242
 20
14.58581
 30
0.0
 40
0.0
 41
0.0
  0
VERTEX
  8
1
  6
CONTINUOUS
 62
   250
 48
0.805031
  5
99
 10
28.418242
 20
9.58581
 30
0.0
 40
0.0
 41
0.0
  0
SEQEND
  8
0
  5
9A
  0
POLYLINE
  8
1
  6
CONTINUOUS
 62
   250
 48
0.805031
  5
9B
 66
     1
 10
0.0
 20
0.0
 30
0.0
 70
   128
  0
VERTEX
  8
1
  6
CONTINUOUS
 62
   250
 48
0.805031
  5
9C
 10
28.668242
 20
14.83581
 30
0.0
 40
0.0
 41
0.0
  0
VERTEX
  8
1
  6
CONTINUOUS
 62
   250
 48
0.805031
  5
9D
 10
31.618241
 20
14.83581
 30
0.0
 40
0.0
 41
0.0
  0
SEQEND
  8
0
  5
9E
  0
POLYLINE
  8
1
  6
CONTINUOUS
 62
   250
 48
0.805031
  5
9F
 66
     1
 10
0.0
 20
0.0
 30
0.0
 70
   128
  0
VERTEX
  8
1
  6
CONTINUOUS
 62
   250
 48
0.805031
  5
A0
 10
31.618241
 20
14.83581
 30
0.0
 40
0.0
 41
0.0
  0
VERTEX
  8
1
  6
CONTINUOUS
 62
   250
 48
0.805031
  5
A1
 10
31.868241
 20
14.58581
 30
0.0
 40
0.0
 41
0.0
  0
SEQEND
  8
0
  5
A2
  0
POLYLINE
  8
1
  6
CONTINUOUS
 62
   250
 48
0.805031
  5
A3
 66
     1
 10
0.0
 20
0.0
 30
0.0
 70
   128
  0
VERTEX
  8
1
  6
CONTINUOUS
 62
   250
 48
0.805031
  5
A4
 10
31.868241
 20
14.58581
 30
0.0
 40
0.0
 41
0.0
  0
VERTEX
  8
1
  6
CONTINUOUS
 62
   250
 48
0.805031
  5
A5
 10
31.868241
 20
9.58581
 30
0.0
 40
0.0
 41
0.0
  0
SEQEND
  8
0
  5
A6
  0
POLYLINE
  8
1
  6
CONTINUOUS
 62
   250
 48
0.805031
  5
A7
 66
     1
 10
0.0
 20
0.0
 30
0.0
 70
   128
  0
VERTEX
  8
1
  6
CONTINUOUS
 62
   250
 48
0.805031
  5
A8
 10
31.618241
 20
9.58581
 30
0.0
 40
0.0
 41
0.0
  0
VERTEX
  8
1
  6
CONTINUOUS
 62
   250
 48
0.805031
  5
A9
 10
31.868241
 20
9.58581
 30
0.0
 40
0.0
 41
0.0
  0
SEQEND
  8
0
  5
AA
  0
POLYLINE
  8
1
  6
CONTINUOUS
 62
   250
 48
0.805031
  5
AB
 66
     1
 10
0.0
 20
0.0
 30
0.0
 70
   128
  0
VERTEX
  8
1
  6
CONTINUOUS
 62
   250
 48
0.805031
  5
AC
 10
33.258239
 20
4.572809
 30
0.0
 40
0.0
 41
0.0
  0
VERTEX
  8
1
  6
CONTINUOUS
 62
   250
 48
0.805031
  5
AD
 10
33.258239
 20
4.572809
 30
0.0
 40
0.0
 41
0.0
  0
SEQEND
  8
0
  5
AE
  0
POLYLINE
  8
1
  6
CONTINUOUS
 62
   250
 48
0.805031
  5
AF
 66
     1
 10
0.0
 20
0.0
 30
0.0
 70
   128
  0
VERTEX
  8
1
  6
CONTINUOUS
 62
   250
 48
0.805031
  5
B0
 10
25.808241
 20
5.010309
 30
0.0
 40
0.0
 41
0.0
  0
VERTEX
  8
1
  6
CONTINUOUS
 62
   250
 48
0.805031
  5
B1
 10
26.308241
 20
4.572809
 30
0.0
 40
0.0
 41
0.0
  0
VERTEX
  8
1
  6
CONTINUOUS
 62
   250
 48
0.805031
  5
B2
 10
28.245741
 20
4.572809
 30
0.0
 40
0.0
 41
0.0
  0
SEQEND
  8
0
  5
B3
  0
POLYLINE
  8
1
  6
CONTINUOUS
 62
   250
 48
0.805031
  5
B4
 66
     1
 10
0.0
 20
0.0
 30
0.0
 70
   128
  0
VERTEX
  8
1
  6
CONTINUOUS
 62
   250
 48
0.805031
  5
B5
 10
33.258239
 20
4.572809
 30
0.0
 40
0.0
 41
0.0
  0
VERTEX
  8
1
  6
CONTINUOUS
 62
   250
 48
0.805031
  5
B6
 10
32.105742
 20
4.57281
 30
0.0
 40
0.0
 41
0.0
  0
SEQEND
  8
0
  5
B7
  0
POLYLINE
  8
1
  6
CONTINUOUS
 62
   250
 48
0.805031
  5
B8
 66
     1
 10
0.0
 20
0.0
 30
0.0
 70
   128
  0
VERTEX
  8
1
  6
CONTINUOUS
 62
   250
 48
0.805031
  5
B9
 10
28.245741
 20
4.572809
 30
0.0
 40
0.0
 41
0.0
  0
VERTEX
  8
1
  6
CONTINUOUS
 62
   250
 48
0.805031
  5
BA
 10
32.105742
 20
4.57281
 30
0.0
 40
0.0
 41
0.0
  0
SEQEND
  8
0
  5
BB
  0
POLYLINE
  8
2
  6
CONTINUOUS
 62
   174
 48
0.805031
  5
BC
 66
     1
 10
0.0
 20
0.0
 30
0.0
 70
   128
  0
VERTEX
  8
2
  6
CONTINUOUS
 62
   174
 48
0.805031
  5
BD
 10
31.643241
 20
10.08581
 30
0.0
 40
0.0
 41
0.0
  0
VERTEX
  8
2
  6
CONTINUOUS
 62
   174
 48
0.805031
  5
BE
 10
31.643241
 20
9.58581
 30
0.0
 40
0.0
 41
0.0
  0
VERTEX
  8
2
  6
CONTINUOUS
 62
   174
 48
0.805031
  5
BF
 10
29.069241
 20
9.58581
 30
0.0
 40
0.0
 41
0.0
  0
VERTEX
  8
2
  6
CONTINUOUS
 62
   174
 48
0.805031
  5
C0
 10
28.643241
 20
10.08581
 30
0.0
 40
0.0
 41
0.0
  0
SEQEND
  8
0
  5
C1
  0
POLYLINE
  8
2
  6
CONTINUOUS
 62
   174
 48
0.805031
  5
C2
 66
     1
 10
0.0
 20
0.0
 30
0.0
 70
   128
  0
VERTEX
  8
2
  6
CONTINUOUS
 62
   174
 48
0.805031
  5
C3
 10
29.668242
 20
9.58581
 30
0.0
 40
0.0
 41
0.0
  0
VERTEX
  8
2
  6
CONTINUOUS
 62
   174
 48
0.805031
  5
C4
 10
29.668242
 20
9.33581
 30
0.0
 40
0.0
 41
0.0
  0
VERTEX
  8
2
  6
CONTINUOUS
 62
   174
 48
0.805031
  5
C5
 10
30.618241
 20
9.33581
 30
0.0
 40
0.0
 41
0.0
  0
VERTEX
  8
2
  6
CONTINUOUS
 62
   174
 48
0.805031
  5
C6
 10
30.618241
 20
9.58581
 30
0.0
 40
0.0
 41
0.0
  0
SEQEND
  8
0
  5
C7
  0
POLYLINE
  8
1
  6
CONTINUOUS
 62
   174
 48
0.25
  5
C8
 66
     1
 10
0.0
 20
0.0
 30
0.0
 70
   128
  0
VERTEX
  8
1
  6
CONTINUOUS
 62
   174
 48
0.25
  5
C9
 10
27.643241
 20
13.185809
 30
0.0
 40
0.0
 41
0.0
  0
VERTEX
  8
1
  6
CONTINUOUS
 62
   174
 48
0.25
  5
CA
 10
32.643241
 20
13.185809
 30
0.0
 40
0.0
 41
0.0
  0
SEQEND
  8
0
  5
CB
  0
ARC
  8
1
  6
CONTINUOUS
 62
   174
 48
0.25
  5
CC
 10
-30.143241
 20
13.185809
 30
0.0
 40
2.5
 50
180.0
 51
360.0
210
0.0
220
0.0
230
-1.0
  0
ARC
  8
1
  6
CONTINUOUS
 62
   174
 48
0.25
  5
CD
 10
-30.143241
 20
13.185809
 30
0.0
 40
2.5
 50
0.0
 51
180.0
210
0.0
220
0.0
230
-1.0
  0
POLYLINE
  8
1
  6
CONTINUOUS
 62
    14
 48
0.25
  5
CE
 66
     1
 10
0.0
 20
0.0
 30
0.0
 70
   128
  0
VERTEX
  8
1
  6
CONTINUOUS
 62
    14
 48
0.25
  5
CF
 10
29.893241
 20
13.435809
 30
0.0
 40
0.0
 41
0.0
  0
VERTEX
  8
1
  6
CONTINUOUS
 62
    14
 48
0.25
  5
D0
 10
29.893241
 20
16.185809
 30
0.0
 40
0.0
 41
0.0
  0
SEQEND
  8
0
  5
D1
  0
POLYLINE
  8
1
  6
CONTINUOUS
 62
    14
 48
0.25
  5
D2
 66
     1
 10
0.0
 20
0.0
 30
0.0
 70
   128
  0
VERTEX
  8
1
  6
CONTINUOUS
 62
    14
 48
0.25
  5
D3
 10
30.393241
 20
13.435809
 30
0.0
 40
0.0
 41
0.0
  0
VERTEX
  8
1
  6
CONTINUOUS
 62
    14
 48
0.25
  5
D4
 10
30.393241
 20
16.185809
 30
0.0
 40
0.0
 41
0.0
  0
SEQEND
  8
0
  5
D5
  0
POLYLINE
  8
1
  6
CONTINUOUS
 62
    14
 48
0.25
  5
D6
 66
     1
 10
0.0
 20
0.0
 30
0.0
 70
   128
  0
VERTEX
  8
1
  6
CONTINUOUS
 62
    14
 48
0.25
  5
D7
 10
29.893241
 20
16.185809
 30
0.0
 40
0.0
 41
0.0
  0
VERTEX
  8
1
  6
CONTINUOUS
 62
    14
 48
0.25
  5
D8
 10
30.393241
 20
16.185809
 30
0.0
 40
0.0
 41
0.0
  0
SEQEND
  8
0
  5
D9
  0
POLYLINE
  8
1
  6
CONTINUOUS
 62
    14
 48
0.25
  5
DA
 66
     1
 10
0.0
 20
0.0
 30
0.0
 70
   128
  0
VERTEX
  8
1
  6
CONTINUOUS
 62
    14
 48
0.25
  5
DB
 10
30.143241
 20
13.185809
 30
0.0
 40
0.0
 41
0.0
  0
VERTEX
  8
1
  6
CONTINUOUS
 62
    14
 48
0.25
  5
DC
 10
30.393241
 20
13.435809
 30
0.0
 40
0.0
 41
0.0
  0
SEQEND
  8
0
  5
DD
  0
POLYLINE
  8
1
  6
CONTINUOUS
 62
    14
 48
0.25
  5
DE
 66
     1
 10
0.0
 20
0.0
 30
0.0
 70
   128
  0
VERTEX
  8
1
  6
CONTINUOUS
 62
    14
 48
0.25
  5
DF
 10
30.143241
 20
13.185809
 30
0.0
 40
0.0
 41
0.0
  0
VERTEX
  8
1
  6
CONTINUOUS
 62
    14
 48
0.25
  5
E0
 10
29.893241
 20
13.435809
 30
0.0
 40
0.0
 41
0.0
  0
SEQEND
  8
0
  5
E1
  0
POLYLINE
  8
1
  6
CONTINUOUS
 62
    14
 48
0.25
  5
E2
 66
     1
 10
0.0
 20
0.0
 30
0.0
 70
   128
  0
VERTEX
  8
1
  6
CONTINUOUS
 62
    14
 48
0.25
  5
E3
 10
30.484747
 20
13.277316
 30
0.0
 40
0.0
 41
0.0
  0
VERTEX
  8
1
  6
CONTINUOUS
 62
    14
 48
0.25
  5
E4
 10
32.866318
 20
11.902316
 30
0.0
 40
0.0
 41
0.0
  0
SEQEND
  8
0
  5
E5
  0
POLYLINE
  8
1
  6
CONTINUOUS
 62
    14
 48
0.25
  5
E6
 66
     1
 10
0.0
 20
0.0
 30
0.0
 70
   128
  0
VERTEX
  8
1
  6
CONTINUOUS
 62
    14
 48
0.25
  5
E7
 10
30.234747
 20
12.844303
 30
0.0
 40
0.0
 41
0.0
  0
VERTEX
  8
1
  6
CONTINUOUS
 62
    14
 48
0.25
  5
E8
 10
32.616318
 20
11.469303
 30
0.0
 40
0.0
 41
0.0
  0
SEQEND
  8
0
  5
E9
  0
POLYLINE
  8
1
  6
CONTINUOUS
 62
    14
 48
0.25
  5
EA
 66
     1
 10
0.0
 20
0.0
 30
0.0
 70
   128
  0
VERTEX
  8
1
  6
CONTINUOUS
 62
    14
 48
0.25
  5
EB
 10
30.234747
 20
12.844303
 30
0.0
 40
0.0
 41
0.0
  0
VERTEX
  8
1
  6
CONTINUOUS
 62
    14
 48
0.25
  5
EC
 10
30.143241
 20
13.185809
 30
0.0
 40
0.0
 41
0.0
  0
SEQEND
  8
0
  5
ED
  0
POLYLINE
  8
1
  6
CONTINUOUS
 62
    14
 48
0.25
  5
EE
 66
     1
 10
0.0
 20
0.0
 30
0.0
 70
   128
  0
VERTEX
  8
1
  6
CONTINUOUS
 62
    14
 48
0.25
  5
EF
 10
30.484747
 20
13.277316
 30
0.0
 40
0.0
 41
0.0
  0
VERTEX
  8
1
  6
CONTINUOUS
 62
    14
 48
0.25
  5
F0
 10
30.143241
 20
13.185809
 30
0.0
 40
0.0
 41
0.0
  0
SEQEND
  8
0
  5
F1
  0
POLYLINE
  8
1
  6
CONTINUOUS
 62
    14
 48
0.25
  5
F2
 66
     1
 10
0.0
 20
0.0
 30
0.0
 70
   128
  0
VERTEX
  8
1
  6
CONTINUOUS
 62
    14
 48
0.25
  5
F3
 10
32.866318
 20
11.902316
 30
0.0
 40
0.0
 41
0.0
  0
VERTEX
  8
1
  6
CONTINUOUS
 62
    14
 48
0.25
  5
F4
 10
32.616318
 20
11.469303
 30
0.0
 40
0.0
 41
0.0
  0
SEQEND
  8
0
  5
F5
  0
POLYLINE
  8
1
  6
CONTINUOUS
 62
    14
 48
0.25
  5
F6
 66
     1
 10
0.0
 20
0.0
 30
0.0
 70
   128
  0
VERTEX
  8
1
  6
CONTINUOUS
 62
    14
 48
0.25
  5
F7
 10
29.801736
 20
13.277316
 30
0.0
 40
0.0
 41
0.0
  0
VERTEX
  8
1
  6
CONTINUOUS
 62
    14
 48
0.25
  5
F8
 10
27.420164
 20
11.902316
 30
0.0
 40
0.0
 41
0.0
  0
SEQEND
  8
0
  5
F9
  0
POLYLINE
  8
1
  6
CONTINUOUS
 62
    14
 48
0.25
  5
FA
 66
     1
 10
0.0
 20
0.0
 30
0.0
 70
   128
  0
VERTEX
  8
1
  6
CONTINUOUS
 62
    14
 48
0.25
  5
FB
 10
30.051736
 20
12.844303
 30
0.0
 40
0.0
 41
0.0
  0
VERTEX
  8
1
  6
CONTINUOUS
 62
    14
 48
0.25
  5
FC
 10
27.670164
 20
11.469303
 30
0.0
 40
0.0
 41
0.0
  0
SEQEND
  8
0
  5
FD
  0
POLYLINE
  8
1
  6
CONTINUOUS
 62
    14
 48
0.25
  5
FE
 66
     1
 10
0.0
 20
0.0
 30
0.0
 70
   128
  0
VERTEX
  8
1
  6
CONTINUOUS
 62
    14
 48
0.25
  5
FF
 10
30.051736
 20
12.844303
 30
0.0
 40
0.0
 41
0.0
  0
VERTEX
  8
1
  6
CONTINUOUS
 62
    14
 48
0.25
  5
100
 10
30.143241
 20
13.185809
 30
0.0
 40
0.0
 41
0.0
  0
SEQEND
  8
0
  5
101
  0
POLYLINE
  8
1
  6
CONTINUOUS
 62
    14
 48
0.25
  5
102
 66
     1
 10
0.0
 20
0.0
 30
0.0
 70
   128
  0
VERTEX
  8
1
  6
CONTINUOUS
 62
    14
 48
0.25
  5
103
 10
29.801736
 20
13.277316
 30
0.0
 40
0.0
 41
0.0
  0
VERTEX
  8
1
  6
CONTINUOUS
 62
    14
 48
0.25
  5
104
 10
30.143241
 20
13.185809
 30
0.0
 40
0.0
 41
0.0
  0
SEQEND
  8
0
  5
105
  0
POLYLINE
  8
1
  6
CONTINUOUS
 62
    14
 48
0.25
  5
106
 66
     1
 10
0.0
 20
0.0
 30
0.0
 70
   128
  0
VERTEX
  8
1
  6
CONTINUOUS
 62
    14
 48
0.25
  5
107
 10
27.420164
 20
11.902316
 30
0.0
 40
0.0
 41
0.0
  0
VERTEX
  8
1
  6
CONTINUOUS
 62
    14
 48
0.25
  5
108
 10
27.670164
 20
11.469303
 30
0.0
 40
0.0
 41
0.0
  0
SEQEND
  8
0
  5
109
  0
POLYLINE
  8
1
  6
CONTINUOUS
 62
   174
 48
0.25
  5
10A
 66
     1
 10
0.0
 20
0.0
 30
0.0
 70
   128
  0
VERTEX
  8
1
  6
CONTINUOUS
 62
   174
 48
0.25
  5
10B
 10
28.643241
 20
10.08581
 30
0.0
 40
0.0
 41
0.0
  0
VERTEX
  8
1
  6
CONTINUOUS
 62
   174
 48
0.25
  5
10C
 10
28.643241
 20
11.58581
 30
0.0
 40
0.0
 41
0.0
  0
VERTEX
  8
1
  6
CONTINUOUS
 62
   174
 48
0.25
  5
10D
 10
31.643241
 20
11.58581
 30
0.0
 40
0.0
 41
0.0
  0
VERTEX
  8
1
  6
CONTINUOUS
 62
   174
 48
0.25
  5
10E
 10
31.643241
 20
10.08581
 30
0.0
 40
0.0
 41
0.0
  0
SEQEND
  8
0
  5
10F
  0
POLYLINE
  8
1
  6
CONTINUOUS
 62
   174
 48
0.25
  5
110
 66
     1
 10
0.0
 20
0.0
 30
0.0
 70
   128
  0
VERTEX
  8
1
  6
CONTINUOUS
 62
   174
 48
0.25
  5
111
 10
29.393241
 20
10.08581
 30
0.0
 40
0.0
 41
0.0
  0
VERTEX
  8
1
  6
CONTINUOUS
 62
   174
 48
0.25
  5
112
 10
29.393241
 20
10.83581
 30
0.0
 40
0.0
 41
0.0
  0
SEQEND
  8
0
  5
113
  0
POLYLINE
  8
1
  6
CONTINUOUS
 62
   174
 48
0.25
  5
114
 66
     1
 10
0.0
 20
0.0
 30
0.0
 70
   128
  0
VERTEX
  8
1
  6
CONTINUOUS
 62
   174
 48
0.25
  5
115
 10
30.893241
 20
10.08581
 30
0.0
 40
0.0
 41
0.0
  0
VERTEX
  8
1
  6
CONTINUOUS
 62
   174
 48
0.25
  5
116
 10
30.893241
 20
10.83581
 30
0.0
 40
0.0
 41
0.0
  0
VERTEX
  8
1
  6
CONTINUOUS
 62
   174
 48
0.25
  5
117
 10
29.393241
 20
10.83581
 30
0.0
 40
0.0
 41
0.0
  0
SEQEND
  8
0
  5
118
  0
POLYLINE
  8
1
  6
CONTINUOUS
 62
    14
 48
0.25
  5
119
 66
     1
 10
0.0
 20
0.0
 30
0.0
 70
   128
  0
VERTEX
  8
1
  6
CONTINUOUS
 62
    14
 48
0.25
  5
11A
 10
29.987041
 20
13.935809
 30
0.0
 40
0.0
 41
0.0
  0
VERTEX
  8
1
  6
CONTINUOUS
 62
    14
 48
0.25
  5
11B
 10
29.987041
 20
15.685809
 30
0.0
 40
0.0
 41
0.0
  0
SEQEND
  8
0
  5
11C
  0
POLYLINE
  8
1
  6
CONTINUOUS
 62
    14
 48
0.25
  5
11D
 66
     1
 10
0.0
 20
0.0
 30
0.0
 70
   128
  0
VERTEX
  8
1
  6
CONTINUOUS
 62
    14
 48
0.25
  5
11E
 10
30.299442
 20
13.935809
 30
0.0
 40
0.0
 41
0.0
  0
VERTEX
  8
1
  6
CONTINUOUS
 62
    14
 48
0.25
  5
11F
 10
30.299442
 20
15.685809
 30
0.0
 40
0.0
 41
0.0
  0
SEQEND
  8
0
  5
120
  0
ARC
  8
1
  6
CONTINUOUS
 62
    14
 48
0.25
  5
121
 10
-30.143241
 20
13.935809
 30
0.0
 40
0.156201
 50
180.0
 51
360.0
210
0.0
220
0.0
230
-1.0
  0
ARC
  8
1
  6
CONTINUOUS
 62
    14
 48
0.25
  5
122
 10
-30.143241
 20
15.685809
 30
0.0
 40
0.156201
 50
0.0
 51
180.0
210
0.0
220
0.0
230
-1.0
  0
POLYLINE
  8
1
  6
CONTINUOUS
 62
   174
 48
0.805031
  5
123
 66
     1
 10
0.0
 20
0.0
 30
0.0
 70
   128
  0
VERTEX
  8
1
  6
CONTINUOUS
 62
   174
 48
0.805031
  5
124
 10
29.393241
 20
10.08581
 30
0.0
 40
0.0
 41
0.0
  0
VERTEX
  8
1
  6
CONTINUOUS
 62
   174
 48
0.805031
  5
125
 10
30.893241
 20
10.08581
 30
0.0
 40
0.0
 41
0.0
  0
SEQEND
  8
0
  5
126
  0
POLYLINE
  8
1
  6
CONTINUOUS
 62
    14
 48
0.25
  5
127
 66
     1
 10
0.0
 20
0.0
 30
0.0
 70
   128
  0
VERTEX
  8
1
  6
CONTINUOUS
 62
    14
 48
0.25
  5
128
 10
30.87086
 20
12.946083
 30
0.0
 40
0.0
 41
0.0
  0
VERTEX
  8
1
  6
CONTINUOUS
 62
    14
 48
0.25
  5
129
 10
32.386406
 20
12.071083
 30
0.0
 40
0.0
 41
0.0
  0
SEQEND
  8
0
  5
12A
  0
POLYLINE
  8
1
  6
CONTINUOUS
 62
    14
 48
0.25
  5
12B
 66
     1
 10
0.0
 20
0.0
 30
0.0
 70
   128
  0
VERTEX
  8
1
  6
CONTINUOUS
 62
    14
 48
0.25
  5
12C
 10
30.714659
 20
12.675537
 30
0.0
 40
0.0
 41
0.0
  0
VERTEX
  8
1
  6
CONTINUOUS
 62
    14
 48
0.25
  5
12D
 10
32.230205
 20
11.800537
 30
0.0
 40
0.0
 41
0.0
  0
SEQEND
  8
0
  5
12E
  0
ARC
  8
1
  6
CONTINUOUS
 62
    14
 48
0.25
  5
12F
 10
-32.308305
 20
11.93581
 30
0.0
 40
0.1562
 50
120.00015
 51
300.00015
210
0.0
220
0.0
230
-1.0
  0
ARC
  8
1
  6
CONTINUOUS
 62
    14
 48
0.25
  5
130
 10
-30.79276
 20
12.81081
 30
0.0
 40
0.1562
 50
300.00015
 51
120.00015
210
0.0
220
0.0
230
-1.0
  0
POLYLINE
  8
1
  6
CONTINUOUS
 62
    14
 48
0.25
  5
131
 66
     1
 10
0.0
 20
0.0
 30
0.0
 70
   128
  0
VERTEX
  8
1
  6
CONTINUOUS
 62
    14
 48
0.25
  5
132
 10
29.415623
 20
12.946082
 30
0.0
 40
0.0
 41
0.0
  0
VERTEX
  8
1
  6
CONTINUOUS
 62
    14
 48
0.25
  5
133
 10
27.900077
 20
12.071082
 30
0.0
 40
0.0
 41
0.0
  0
SEQEND
  8
0
  5
134
  0
POLYLINE
  8
1
  6
CONTINUOUS
 62
    14
 48
0.25
  5
135
 66
     1
 10
0.0
 20
0.0
 30
0.0
 70
   128
  0
VERTEX
  8
1
  6
CONTINUOUS
 62
    14
 48
0.25
  5
136
 10
29.571823
 20
12.675536
 30
0.0
 40
0.0
 41
0.0
  0
VERTEX
  8
1
  6
CONTINUOUS
 62
    14
 48
0.25
  5
137
 10
28.056278
 20
11.800536
 30
0.0
 40
0.0
 41
0.0
  0
SEQEND
  8
0
  5
138
  0
ARC
  8
1
  6
CONTINUOUS
 62
    14
 48
0.25
  5
139
 10
-29.493723
 20
12.810809
 30
0.0
 40
0.1562
 50
59.99985
 51
239.99985
210
0.0
220
0.0
230
-1.0
  0
ARC
  8
1
  6
CONTINUOUS
 62
    14
 48
0.25
  5
13A
 10
-27.978178
 20
11.935809
 30
0.0
 40
0.1562
 50
239.99985
 51
59.99985
210
0.0
220
0.0
230
-1.0
  0
POLYLINE
  8
1
  6
CONTINUOUS
 62
    14
 48
0.25
  5
13B
 66
     1
 10
0.0
 20
0.0
 30
0.0
 70
   128
  0
VERTEX
  8
1
  6
CONTINUOUS
 62
    14
 48
0.25
  5
13C
 10
32.957824
 20
11.560809
 30
0.0
 40
0.0
 41
0.0
  0
VERTEX
  8
1
  6
CONTINUOUS
 62
    14
 48
0.25
  5
13D
 10
32.957824
 20
11.560809
 30
0.0
 40
0.0
 41
0.0
  0
SEQEND
  8
0
  5
13E
  0
POLYLINE
  8
1
  6
CONTINUOUS
 62
    14
 48
0.25
  5
13F
 66
     1
 10
0.0
 20
0.0
 30
0.0
 70
   128
  0
VERTEX
  8
1
  6
CONTINUOUS
 62
    14
 48
0.25
  5
140
 10
27.328659
 20
11.560809
 30
0.0
 40
0.0
 41
0.0
  0
VERTEX
  8
1
  6
CONTINUOUS
 62
    14
 48
0.25
  5
141
 10
27.328659
 20
11.560809
 30
0.0
 40
0.0
 41
0.0
  0
SEQEND
  8
0
  5
142
  0
POLYLINE
  8
1
  6
CONTINUOUS
 62
    14
 48
0.25
  5
143
 66
     1
 10
0.0
 20
0.0
 30
0.0
 70
   128
  0
VERTEX
  8
1
  6
CONTINUOUS
 62
    14
 48
0.25
  5
144
 10
30.143241
 20
16.435809
 30
0.0
 40
0.0
 41
0.0
  0
VERTEX
  8
1
  6
CONTINUOUS
 62
    14
 48
0.25
  5
145
 10
30.143241
 20
16.435809
 30
0.0
 40
0.0
 41
0.0
  0
SEQEND
  8
0
  5
146
  0
CIRCLE
  8
1
  6
CONTINUOUS
 62
   214
 48
0.25
  5
147
 10
-30.143241
 20
15.185809
 30
0.0
 40
0.156199
210
0.0
220
0.0
230
-1.0
  0
CIRCLE
  8
1
  6
CONTINUOUS
 62
   214
 48
0.25
  5
148
 10
-31.875292
 20
12.185809
 30
0.0
 40
0.1562
210
0.0
220
0.0
230
-1.0
  0
CIRCLE
  8
1
  6
CONTINUOUS
 62
   214
 48
0.25
  5
149
 10
-28.411191
 20
12.185809
 30
0.0
 40
0.1562
210
0.0
220
0.0
230
-1.0
  0
POLYLINE
  8
1
  6
CONTINUOUS
 62
   214
 48
0.25
  5
14A
 66
     1
 10
0.0
 20
0.0
 30
0.0
 70
   128
  0
VERTEX
  8
1
  6
CONTINUOUS
 62
   214
 48
0.25
  5
14B
 10
31.783787
 20
12.527314
 30
0.0
 40
0.0
 41
0.0
  0
VERTEX
  8
1
  6
CONTINUOUS
 62
   214
 48
0.25
  5
14C
 10
32.2168
 20
12.277314
 30
0.0
 40
0.0
 41
0.0
  0
SEQEND
  8
0
  5
14D
  0
POLYLINE
  8
1
  6
CONTINUOUS
 62
   214
 48
0.25
  5
14E
 66
     1
 10
0.0
 20
0.0
 30
0.0
 70
   128
  0
VERTEX
  8
1
  6
CONTINUOUS
 62
   214
 48
0.25
  5
14F
 10
31.533787
 20
12.0943
 30
0.0
 40
0.0
 41
0.0
  0
VERTEX
  8
1
  6
CONTINUOUS
 62
   214
 48
0.25
  5
150
 10
31.9668
 20
11.8443
 30
0.0
 40
0.0
 41
0.0
  0
SEQEND
  8
0
  5
151
  0
ARC
  8
1
  6
CONTINUOUS
 62
   214
 48
0.25
  5
152
 10
-31.658787
 20
12.310807
 30
0.0
 40
0.25
 50
299.999963
 51
119.999963
210
0.0
220
0.0
230
-1.0
  0
ARC
  8
1
  6
CONTINUOUS
 62
   214
 48
0.25
  5
153
 10
-32.0918
 20
12.060807
 30
0.0
 40
0.25
 50
119.999963
 51
299.999963
210
0.0
220
0.0
230
-1.0
  0
POLYLINE
  8
1
  6
CONTINUOUS
 62
   214
 48
0.25
  5
154
 66
     1
 10
0.0
 20
0.0
 30
0.0
 70
   128
  0
VERTEX
  8
1
  6
CONTINUOUS
 62
   214
 48
0.25
  5
155
 10
28.502699
 20
12.527317
 30
0.0
 40
0.0
 41
0.0
  0
VERTEX
  8
1
  6
CONTINUOUS
 62
   214
 48
0.25
  5
156
 10
28.069683
 20
12.277317
 30
0.0
 40
0.0
 41
0.0
  0
SEQEND
  8
0
  5
157
  0
POLYLINE
  8
1
  6
CONTINUOUS
 62
   214
 48
0.25
  5
158
 66
     1
 10
0.0
 20
0.0
 30
0.0
 70
   128
  0
VERTEX
  8
1
  6
CONTINUOUS
 62
   214
 48
0.25
  5
159
 10
28.752699
 20
12.094304
 30
0.0
 40
0.0
 41
0.0
  0
VERTEX
  8
1
  6
CONTINUOUS
 62
   214
 48
0.25
  5
15A
 10
28.319683
 20
11.844304
 30
0.0
 40
0.0
 41
0.0
  0
SEQEND
  8
0
  5
15B
  0
ARC
  8
1
  6
CONTINUOUS
 62
   214
 48
0.25
  5
15C
 10
-28.627699
 20
12.31081
 30
0.0
 40
0.25
 50
60.000037
 51
240.000037
210
0.0
220
0.0
230
-1.0
  0
ARC
  8
1
  6
CONTINUOUS
 62
   214
 48
0.25
  5
15D
 10
-28.194683
 20
12.06081
 30
0.0
 40
0.25
 50
240.000037
 51
60.000037
210
0.0
220
0.0
230
-1.0
  0
POLYLINE
  8
1
  6
CONTINUOUS
 62
   214
 48
0.25
  5
15E
 66
     1
 10
0.0
 20
0.0
 30
0.0
 70
   128
  0
VERTEX
  8
1
  6
CONTINUOUS
 62
   214
 48
0.25
  5
15F
 10
29.893241
 20
14.935809
 30
0.0
 40
0.0
 41
0.0
  0
VERTEX
  8
1
  6
CONTINUOUS
 62
   214
 48
0.25
  5
160
 10
29.893241
 20
15.435809
 30
0.0
 40
0.0
 41
0.0
  0
SEQEND
  8
0
  5
161
  0
POLYLINE
  8
1
  6
CONTINUOUS
 62
   214
 48
0.25
  5
162
 66
     1
 10
0.0
 20
0.0
 30
0.0
 70
   128
  0
VERTEX
  8
1
  6
CONTINUOUS
 62
   214
 48
0.25
  5
163
 10
30.393241
 20
14.935809
 30
0.0
 40
0.0
 41
0.0
  0
VERTEX
  8
1
  6
CONTINUOUS
 62
   214
 48
0.25
  5
164
 10
30.393241
 20
15.435809
 30
0.0
 40
0.0
 41
0.0
  0
SEQEND
  8
0
  5
165
  0
ARC
  8
1
  6
CONTINUOUS
 62
   214
 48
0.25
  5
166
 10
-30.143241
 20
15.435809
 30
0.0
 40
0.25
 50
0.0
 51
180.0
210
0.0
220
0.0
230
-1.0
  0
ARC
  8
1
  6
CONTINUOUS
 62
   214
 48
0.25
  5
167
 10
-30.143241
 20
14.935809
 30
0.0
 40
0.25
 50
180.0
 51
360.0
210
0.0
220
0.0
230
-1.0
  0
CIRCLE
  8
1
  6
CONTINUOUS
 62
   174
 48
0.25
  5
168
 10
-30.143241
 20
13.185809
 30
0.0
 40
1.5
210
0.0
220
0.0
230
-1.0
  0
POLYLINE
  8
1
  6
CONTINUOUS
 62
   174
 48
0.25
  5
169
 66
     1
 10
0.0
 20
0.0
 30
0.0
 70
   128
  0
VERTEX
  8
1
  6
CONTINUOUS
 62
   174
 48
0.25
  5
16A
 10
33.207824
 20
11.993822
 30
0.0
 40
0.0
 41
0.0
  0
VERTEX
  8
1
  6
CONTINUOUS
 62
   174
 48
0.25
  5
16B
 10
33.099569
 20
12.056322
 30
0.0
 40
0.0
 41
0.0
  0
VERTEX
  8
1
  6
CONTINUOUS
 62
   174
 48
0.25
  5
16C
 10
32.599569
 20
11.190297
 30
0.0
 40
0.0
 41
0.0
  0
VERTEX
  8
1
  6
CONTINUOUS
 62
   174
 48
0.25
  5
16D
 10
32.707824
 20
11.127797
 30
0.0
 40
0.0
 41
0.0
  0
VERTEX
  8
1
  6
CONTINUOUS
 62
   174
 48
0.25
  5
16E
 10
33.207824
 20
11.993822
 30
0.0
 40
0.0
 41
0.0
  0
SEQEND
  8
0
  5
16F
  0
POLYLINE
  8
1
  6
CONTINUOUS
 62
   174
 48
0.25
  5
170
 66
     1
 10
0.0
 20
0.0
 30
0.0
 70
   128
  0
VERTEX
  8
1
  6
CONTINUOUS
 62
   174
 48
0.25
  5
171
 10
29.643241
 20
16.435809
 30
0.0
 40
0.0
 41
0.0
  0
VERTEX
  8
1
  6
CONTINUOUS
 62
   174
 48
0.25
  5
172
 10
29.643241
 20
16.310809
 30
0.0
 40
0.0
 41
0.0
  0
VERTEX
  8
1
  6
CONTINUOUS
 62
   174
 48
0.25
  5
173
 10
30.643241
 20
16.310809
 30
0.0
 40
0.0
 41
0.0
  0
VERTEX
  8
1
  6
CONTINUOUS
 62
   174
 48
0.25
  5
174
 10
30.643241
 20
16.435809
 30
0.0
 40
0.0
 41
0.0
  0
VERTEX
  8
1
  6
CONTINUOUS
 62
   174
 48
0.25
  5
175
 10
29.643241
 20
16.435809
 30
0.0
 40
0.0
 41
0.0
  0
SEQEND
  8
0
  5
176
  0
POLYLINE
  8
1
  6
CONTINUOUS
 62
   174
 48
0.25
  5
177
 66
     1
 10
0.0
 20
0.0
 30
0.0
 70
   128
  0
VERTEX
  8
1
  6
CONTINUOUS
 62
   174
 48
0.25
  5
178
 10
27.078659
 20
11.993822
 30
0.0
 40
0.0
 41
0.0
  0
VERTEX
  8
1
  6
CONTINUOUS
 62
   174
 48
0.25
  5
179
 10
27.186913
 20
12.056322
 30
0.0
 40
0.0
 41
0.0
  0
VERTEX
  8
1
  6
CONTINUOUS
 62
   174
 48
0.25
  5
17A
 10
27.686913
 20
11.190297
 30
0.0
 40
0.0
 41
0.0
  0
VERTEX
  8
1
  6
CONTINUOUS
 62
   174
 48
0.25
  5
17B
 10
27.578659
 20
11.127797
 30
0.0
 40
0.0
 41
0.0
  0
VERTEX
  8
1
  6
CONTINUOUS
 62
   174
 48
0.25
  5
17C
 10
27.078659
 20
11.993822
 30
0.0
 40
0.0
 41
0.0
  0
SEQEND
  8
0
  5
17D
  0
POLYLINE
  8
1
  6
CONTINUOUS
 62
   134
 48
0.25
  5
17E
 66
     1
 10
0.0
 20
0.0
 30
0.0
 70
   128
  0
VERTEX
  8
1
  6
CONTINUOUS
 62
   134
 48
0.25
  5
17F
 10
30.018241
 20
16.310809
 30
0.0
 40
0.0
 41
0.0
  0
VERTEX
  8
1
  6
CONTINUOUS
 62
   134
 48
0.25
  5
180
 10
30.018241
 20
16.185809
 30
0.0
 40
0.0
 41
0.0
  0
VERTEX
  8
1
  6
CONTINUOUS
 62
   134
 48
0.25
  5
181
 10
30.268241
 20
16.185809
 30
0.0
 40
0.0
 41
0.0
  0
VERTEX
  8
1
  6
CONTINUOUS
 62
   134
 48
0.25
  5
182
 10
30.268241
 20
16.310809
 30
0.0
 40
0.0
 41
0.0
  0
SEQEND
  8
0
  5
183
  0
POLYLINE
  8
1
  6
CONTINUOUS
 62
   134
 48
0.25
  5
184
 66
     1
 10
0.0
 20
0.0
 30
0.0
 70
   128
  0
VERTEX
  8
1
  6
CONTINUOUS
 62
   134
 48
0.25
  5
185
 10
32.912069
 20
11.731563
 30
0.0
 40
0.0
 41
0.0
  0
VERTEX
  8
1
  6
CONTINUOUS
 62
   134
 48
0.25
  5
186
 10
32.803815
 20
11.794063
 30
0.0
 40
0.0
 41
0.0
  0
VERTEX
  8
1
  6
CONTINUOUS
 62
   134
 48
0.25
  5
187
 10
32.678815
 20
11.577556
 30
0.0
 40
0.0
 41
0.0
  0
VERTEX
  8
1
  6
CONTINUOUS
 62
   134
 48
0.25
  5
188
 10
32.787069
 20
11.515056
 30
0.0
 40
0.0
 41
0.0
  0
SEQEND
  8
0
  5
189
  0
POLYLINE
  8
1
  6
CONTINUOUS
 62
   134
 48
0.25
  5
18A
 66
     1
 10
0.0
 20
0.0
 30
0.0
 70
   128
  0
VERTEX
  8
1
  6
CONTINUOUS
 62
   134
 48
0.25
  5
18B
 10
27.499413
 20
11.515056
 30
0.0
 40
0.0
 41
0.0
  0
VERTEX
  8
1
  6
CONTINUOUS
 62
   134
 48
0.25
  5
18C
 10
27.607668
 20
11.577556
 30
0.0
 40
0.0
 41
0.0
  0
VERTEX
  8
1
  6
CONTINUOUS
 62
   134
 48
0.25
  5
18D
 10
27.482668
 20
11.794063
 30
0.0
 40
0.0
 41
0.0
  0
VERTEX
  8
1
  6
CONTINUOUS
 62
   134
 48
0.25
  5
18E
 10
27.374413
 20
11.731563
 30
0.0
 40
0.0
 41
0.0
  0
SEQEND
  8
0
  5
18F
  0
POLYLINE
  8
1
  6
CONTINUOUS
 62
   134
 48
0.25
  5
190
 66
     1
 10
0.0
 20
0.0
 30
0.0
 70
   128
  0
VERTEX
  8
1
  6
CONTINUOUS
 62
   134
 48
0.25
  5
191
 10
30.068243
 20
16.185809
 30
0.0
 40
0.0
 41
0.0
  0
VERTEX
  8
1
  6
CONTINUOUS
 62
   134
 48
0.25
  5
192
 10
30.068243
 20
14.185809
 30
0.0
 40
0.0
 41
0.0
  0
VERTEX
  8
1
  6
CONTINUOUS
 62
   134
 48
0.25
  5
193
 10
30.218243
 20
14.185809
 30
0.0
 40
0.0
 41
0.0
  0
VERTEX
  8
1
  6
CONTINUOUS
 62
   134
 48
0.25
  5
194
 10
30.218243
 20
16.185809
 30
0.0
 40
0.0
 41
0.0
  0
SEQEND
  8
0
  5
195
  0
POLYLINE
  8
1
  6
CONTINUOUS
 62
   134
 48
0.25
  5
196
 66
     1
 10
0.0
 20
0.0
 30
0.0
 70
   128
  0
VERTEX
  8
1
  6
CONTINUOUS
 62
   134
 48
0.25
  5
197
 10
32.778815
 20
11.750762
 30
0.0
 40
0.0
 41
0.0
  0
VERTEX
  8
1
  6
CONTINUOUS
 62
   134
 48
0.25
  5
198
 10
31.046764
 20
12.750762
 30
0.0
 40
0.0
 41
0.0
  0
VERTEX
  8
1
  6
CONTINUOUS
 62
   134
 48
0.25
  5
199
 10
30.971766
 20
12.620858
 30
0.0
 40
0.0
 41
0.0
  0
VERTEX
  8
1
  6
CONTINUOUS
 62
   134
 48
0.25
  5
19A
 10
32.703816
 20
11.620858
 30
0.0
 40
0.0
 41
0.0
  0
SEQEND
  8
0
  5
19B
  0
POLYLINE
  8
1
  6
CONTINUOUS
 62
   134
 48
0.25
  5
19C
 66
     1
 10
0.0
 20
0.0
 30
0.0
 70
   128
  0
VERTEX
  8
1
  6
CONTINUOUS
 62
   134
 48
0.25
  5
19D
 10
27.507668
 20
11.750762
 30
0.0
 40
0.0
 41
0.0
  0
VERTEX
  8
1
  6
CONTINUOUS
 62
   134
 48
0.25
  5
19E
 10
29.239718
 20
12.750762
 30
0.0
 40
0.0
 41
0.0
  0
VERTEX
  8
1
  6
CONTINUOUS
 62
   134
 48
0.25
  5
19F
 10
29.314717
 20
12.620858
 30
0.0
 40
0.0
 41
0.0
  0
VERTEX
  8
1
  6
CONTINUOUS
 62
   134
 48
0.25
  5
1A0
 10
27.582667
 20
11.620858
 30
0.0
 40
0.0
 41
0.0
  0
SEQEND
  8
0
  5
1A1
  0
POLYLINE
  8
1
  6
CONTINUOUS
 62
   174
 48
0.25
  5
1A2
 66
     1
 10
0.0
 20
0.0
 30
0.0
 70
   128
  0
VERTEX
  8
1
  6
CONTINUOUS
 62
   174
 48
0.25
  5
1A3
 10
34.643241
 20
13.185809
 30
0.0
 40
0.0
 41
0.0
  0
VERTEX
  8
1
  6
CONTINUOUS
 62
   174
 48
0.25
  5
1A4
 10
35.393241
 20
13.185809
 30
0.0
 40
0.0
 41
0.0
  0
SEQEND
  8
0
  5
1A5
  0
POLYLINE
  8
1
  6
CONTINUOUS
 62
   174
 48
0.25
  5
1A6
 66
     1
 10
0.0
 20
0.0
 30
0.0
 70
   128
  0
VERTEX
  8
1
  6
CONTINUOUS
 62
   174
 48
0.25
  5
1A7
 10
34.643241
 20
13.185809
 30
0.0
 40
0.0
 41
0.0
  0
VERTEX
  8
1
  6
CONTINUOUS
 62
   174
 48
0.25
  5
1A8
 10
34.643241
 20
15.685809
 30
0.0
 40
0.0
 41
0.0
  0
VERTEX
  8
1
  6
CONTINUOUS
 62
   174
 48
0.25
  5
1A9
 10
35.393241
 20
15.685809
 30
0.0
 40
0.0
 41
0.0
  0
VERTEX
  8
1
  6
CONTINUOUS
 62
   174
 48
0.25
  5
1AA
 10
35.393241
 20
13.185809
 30
0.0
 40
0.0
 41
0.0
  0
SEQEND
  8
0
  5
1AB
  0
POLYLINE
  8
1
  6
CONTINUOUS
 62
   174
 48
0.25
  5
1AC
 66
     1
 10
0.0
 20
0.0
 30
0.0
 70
   128
  0
VERTEX
  8
1
  6
CONTINUOUS
 62
   174
 48
0.25
  5
1AD
 10
34.643241
 20
11.585809
 30
0.0
 40
0.0
 41
0.0
  0
VERTEX
  8
1
  6
CONTINUOUS
 62
   174
 48
0.25
  5
1AE
 10
35.143241
 20
11.585809
 30
0.0
 40
0.0
 41
0.0
  0
SEQEND
  8
0
  5
1AF
  0
POLYLINE
  8
1
  6
CONTINUOUS
 62
   174
 48
0.25
  5
1B0
 66
     1
 10
0.0
 20
0.0
 30
0.0
 70
   128
  0
VERTEX
  8
1
  6
CONTINUOUS
 62
   174
 48
0.25
  5
1B1
 10
35.393241
 20
10.685809
 30
0.0
 40
0.0
 41
0.0
  0
VERTEX
  8
1
  6
CONTINUOUS
 62
   174
 48
0.25
  5
1B2
 10
35.393241
 20
13.185809
 30
0.0
 40
0.0
 41
0.0
  0
SEQEND
  8
0
  5
1B3
  0
POLYLINE
  8
1
  6
CONTINUOUS
 62
   174
 48
0.25
  5
1B4
 66
     1
 10
0.0
 20
0.0
 30
0.0
 70
   128
  0
VERTEX
  8
1
  6
CONTINUOUS
 62
   174
 48
0.25
  5
1B5
 10
34.643241
 20
13.185809
 30
0.0
 40
0.0
 41
0.0
  0
VERTEX
  8
1
  6
CONTINUOUS
 62
   174
 48
0.25
  5
1B6
 10
34.643241
 20
11.585809
 30
0.0
 40
0.0
 41
0.0
  0
SEQEND
  8
0
  5
1B7
  0
POLYLINE
  8
1
  6
CONTINUOUS
 62
   174
 48
0.25
  5
1B8
 66
     1
 10
0.0
 20
0.0
 30
0.0
 70
   128
  0
VERTEX
  8
1
  6
CONTINUOUS
 62
   174
 48
0.25
  5
1B9
 10
35.143241
 20
11.585809
 30
0.0
 40
0.0
 41
0.0
  0
VERTEX
  8
1
  6
CONTINUOUS
 62
   174
 48
0.25
  5
1BA
 10
35.143241
 20
9.585809
 30
0.0
 40
0.0
 41
0.0
  0
VERTEX
  8
1
  6
CONTINUOUS
 62
   174
 48
0.25
  5
1BB
 10
34.643241
 20
9.585809
 30
0.0
 40
0.0
 41
0.0
  0
VERTEX
  8
1
  6
CONTINUOUS
 62
   174
 48
0.25
  5
1BC
 10
34.643241
 20
11.585809
 30
0.0
 40
0.0
 41
0.0
  0
SEQEND
  8
0
  5
1BD
  0
POLYLINE
  8
1
  6
CONTINUOUS
 62
   174
 48
0.25
  5
1BE
 66
     1
 10
0.0
 20
0.0
 30
0.0
 70
   128
  0
VERTEX
  8
1
  6
CONTINUOUS
 62
   174
 48
0.25
  5
1BF
 10
35.393241
 20
10.685809
 30
0.0
 40
0.0
 41
0.0
  0
VERTEX
  8
1
  6
CONTINUOUS
 62
   174
 48
0.25
  5
1C0
 10
35.143241
 20
10.685809
 30
0.0
 40
0.0
 41
0.0
  0
SEQEND
  8
0
  5
1C1
  0
POLYLINE
  8
1
  6
CONTINUOUS
 62
    14
 48
0.25
  5
1C2
 66
     1
 10
0.0
 20
0.0
 30
0.0
 70
   128
  0
VERTEX
  8
1
  6
CONTINUOUS
 62
    14
 48
0.25
  5
1C3
 10
35.268241
 20
15.685809
 30
0.0
 40
0.0
 41
0.0
  0
VERTEX
  8
1
  6
CONTINUOUS
 62
    14
 48
0.25
  5
1C4
 10
35.268241
 20
15.685809
 30
0.0
 40
0.0
 41
0.0
  0
SEQEND
  8
0
  5
1C5
  0
POLYLINE
  8
1
  6
CONTINUOUS
 62
    14
 48
0.25
  5
1C6
 66
     1
 10
0.0
 20
0.0
 30
0.0
 70
   128
  0
VERTEX
  8
1
  6
CONTINUOUS
 62
    14
 48
0.25
  5
1C7
 10
35.268241
 20
16.185809
 30
0.0
 40
0.0
 41
0.0
  0
VERTEX
  8
1
  6
CONTINUOUS
 62
    14
 48
0.25
  5
1C8
 10
34.955741
 20
16.185809
 30
0.0
 40
0.0
 41
0.0
  0
SEQEND
  8
0
  5
1C9
  0
POLYLINE
  8
1
  6
CONTINUOUS
 62
    14
 48
0.25
  5
1CA
 66
     1
 10
0.0
 20
0.0
 30
0.0
 70
   128
  0
VERTEX
  8
1
  6
CONTINUOUS
 62
    14
 48
0.25
  5
1CB
 10
34.955741
 20
16.185809
 30
0.0
 40
0.0
 41
0.0
  0
VERTEX
  8
1
  6
CONTINUOUS
 62
    14
 48
0.25
  5
1CC
 10
34.955741
 20
13.185809
 30
0.0
 40
0.0
 41
0.0
  0
SEQEND
  8
0
  5
1CD
  0
POLYLINE
  8
1
  6
CONTINUOUS
 62
    14
 48
0.25
  5
1CE
 66
     1
 10
0.0
 20
0.0
 30
0.0
 70
   128
  0
VERTEX
  8
1
  6
CONTINUOUS
 62
    14
 48
0.25
  5
1CF
 10
35.268241
 20
16.185809
 30
0.0
 40
0.0
 41
0.0
  0
VERTEX
  8
1
  6
CONTINUOUS
 62
    14
 48
0.25
  5
1D0
 10
35.268241
 20
13.185809
 30
0.0
 40
0.0
 41
0.0
  0
SEQEND
  8
0
  5
1D1
  0
POLYLINE
  8
1
  6
CONTINUOUS
 62
   174
 48
0.25
  5
1D2
 66
     1
 10
0.0
 20
0.0
 30
0.0
 70
   128
  0
VERTEX
  8
1
  6
CONTINUOUS
 62
   174
 48
0.25
  5
1D3
 10
35.111991
 20
16.435809
 30
0.0
 40
0.0
 41
0.0
  0
VERTEX
  8
1
  6
CONTINUOUS
 62
   174
 48
0.25
  5
1D4
 10
35.111991
 20
16.435809
 30
0.0
 40
0.0
 41
0.0
  0
SEQEND
  8
0
  5
1D5
  0
POLYLINE
  8
1
  6
CONTINUOUS
 62
   174
 48
0.25
  5
1D6
 66
     1
 10
0.0
 20
0.0
 30
0.0
 70
   128
  0
VERTEX
  8
1
  6
CONTINUOUS
 62
   174
 48
0.25
  5
1D7
 10
34.611991
 20
16.435809
 30
0.0
 40
0.0
 41
0.0
  0
VERTEX
  8
1
  6
CONTINUOUS
 62
   174
 48
0.25
  5
1D8
 10
34.611991
 20
16.310809
 30
0.0
 40
0.0
 41
0.0
  0
VERTEX
  8
1
  6
CONTINUOUS
 62
   174
 48
0.25
  5
1D9
 10
35.611991
 20
16.310809
 30
0.0
 40
0.0
 41
0.0
  0
VERTEX
  8
1
  6
CONTINUOUS
 62
   174
 48
0.25
  5
1DA
 10
35.611991
 20
16.435809
 30
0.0
 40
0.0
 41
0.0
  0
VERTEX
  8
1
  6
CONTINUOUS
 62
   174
 48
0.25
  5
1DB
 10
34.611991
 20
16.435809
 30
0.0
 40
0.0
 41
0.0
  0
SEQEND
  8
0
  5
1DC
  0
POLYLINE
  8
1
  6
CONTINUOUS
 62
   134
 48
0.25
  5
1DD
 66
     1
 10
0.0
 20
0.0
 30
0.0
 70
   128
  0
VERTEX
  8
1
  6
CONTINUOUS
 62
   134
 48
0.25
  5
1DE
 10
34.986991
 20
16.310809
 30
0.0
 40
0.0
 41
0.0
  0
VERTEX
  8
1
  6
CONTINUOUS
 62
   134
 48
0.25
  5
1DF
 10
34.986991
 20
16.185809
 30
0.0
 40
0.0
 41
0.0
  0
VERTEX
  8
1
  6
CONTINUOUS
 62
   134
 48
0.25
  5
1E0
 10
35.236991
 20
16.185809
 30
0.0
 40
0.0
 41
0.0
  0
VERTEX
  8
1
  6
CONTINUOUS
 62
   134
 48
0.25
  5
1E1
 10
35.236991
 20
16.310809
 30
0.0
 40
0.0
 41
0.0
  0
SEQEND
  8
0
  5
1E2
  0
POLYLINE
  8
1
  6
CONTINUOUS
 62
   134
 48
0.25
  5
1E3
 66
     1
 10
0.0
 20
0.0
 30
0.0
 70
   128
  0
VERTEX
  8
1
  6
CONTINUOUS
 62
   134
 48
0.25
  5
1E4
 10
35.036993
 20
16.185809
 30
0.0
 40
0.0
 41
0.0
  0
VERTEX
  8
1
  6
CONTINUOUS
 62
   134
 48
0.25
  5
1E5
 10
35.036993
 20
14.185809
 30
0.0
 40
0.0
 41
0.0
  0
VERTEX
  8
1
  6
CONTINUOUS
 62
   134
 48
0.25
  5
1E6
 10
35.186993
 20
14.185809
 30
0.0
 40
0.0
 41
0.0
  0
VERTEX
  8
1
  6
CONTINUOUS
 62
   134
 48
0.25
  5
1E7
 10
35.186993
 20
16.185809
 30
0.0
 40
0.0
 41
0.0
  0
SEQEND
  8
0
  5
1E8
  0
POLYLINE
  8
1
  6
CONTINUOUS
 62
   134
 48
0.25
  5
1E9
 66
     1
 10
0.0
 20
0.0
 30
0.0
 70
   128
  0
VERTEX
  8
1
  6
CONTINUOUS
 62
   134
 48
0.25
  5
1EA
 10
35.393241
 20
15.185809
 30
0.0
 40
0.0
 41
0.0
  0
VERTEX
  8
1
  6
CONTINUOUS
 62
   134
 48
0.25
  5
1EB
 10
35.393241
 20
15.185809
 30
0.0
 40
0.0
 41
0.0
  0
SEQEND
  8
0
  5
1EC
  0
POLYLINE
  8
1
  6
CONTINUOUS
 62
   214
 48
0.25
  5
1ED
 66
     1
 10
0.0
 20
0.0
 30
0.0
 70
   128
  0
VERTEX
  8
1
  6
CONTINUOUS
 62
   214
 48
0.25
  5
1EE
 10
35.243241
 20
15.342009
 30
0.0
 40
0.0
 41
0.0
  0
VERTEX
  8
1
  6
CONTINUOUS
 62
   214
 48
0.25
  5
1EF
 10
34.143241
 20
15.342009
 30
0.0
 40
0.0
 41
0.0
  0
VERTEX
  8
1
  6
CONTINUOUS
 62
   214
 48
0.25
  5
1F0
 10
34.143241
 20
15.029509
 30
0.0
 40
0.0
 41
0.0
  0
VERTEX
  8
1
  6
CONTINUOUS
 62
   214
 48
0.25
  5
1F1
 10
35.268241
 20
15.029509
 30
0.0
 40
0.0
 41
0.0
  0
SEQEND
  8
0
  5
1F2
  0
POLYLINE
  8
1
  6
CONTINUOUS
 62
   214
 48
0.25
  5
1F3
 66
     1
 10
0.0
 20
0.0
 30
0.0
 70
   128
  0
VERTEX
  8
1
  6
CONTINUOUS
 62
   214
 48
0.25
  5
1F4
 10
35.393241
 20
15.685809
 30
0.0
 40
0.0
 41
0.0
  0
VERTEX
  8
1
  6
CONTINUOUS
 62
   214
 48
0.25
  5
1F5
 10
35.393241
 20
14.685809
 30
0.0
 40
0.0
 41
0.0
  0
VERTEX
  8
1
  6
CONTINUOUS
 62
   214
 48
0.25
  5
1F6
 10
35.268241
 20
14.685809
 30
0.0
 40
0.0
 41
0.0
  0
VERTEX
  8
1
  6
CONTINUOUS
 62
   214
 48
0.25
  5
1F7
 10
35.268241
 20
15.685809
 30
0.0
 40
0.0
 41
0.0
  0
VERTEX
  8
1
  6
CONTINUOUS
 62
   214
 48
0.25
  5
1F8
 10
35.393241
 20
15.685809
 30
0.0
 40
0.0
 41
0.0
  0
SEQEND
  8
0
  5
1F9
  0
POLYLINE
  8
1
  6
CONTINUOUS
 62
   214
 48
0.25
  5
1FA
 66
     1
 10
0.0
 20
0.0
 30
0.0
 70
   128
  0
VERTEX
  8
1
  6
CONTINUOUS
 62
   214
 48
0.25
  5
1FB
 10
34.143241
 20
15.435759
 30
0.0
 40
0.0
 41
0.0
  0
VERTEX
  8
1
  6
CONTINUOUS
 62
   214
 48
0.25
  5
1FC
 10
34.518241
 20
15.435759
 30
0.0
 40
0.0
 41
0.0
  0
VERTEX
  8
1
  6
CONTINUOUS
 62
   214
 48
0.25
  5
1FD
 10
34.518241
 20
14.935759
 30
0.0
 40
0.0
 41
0.0
  0
VERTEX
  8
1
  6
CONTINUOUS
 62
   214
 48
0.25
  5
1FE
 10
34.143241
 20
14.935759
 30
0.0
 40
0.0
 41
0.0
  0
VERTEX
  8
1
  6
CONTINUOUS
 62
   214
 48
0.25
  5
1FF
 10
34.143241
 20
15.435759
 30
0.0
 40
0.0
 41
0.0
  0
SEQEND
  8
0
  5
200
  0
POLYLINE
  8
1
  6
CONTINUOUS
 62
   214
 48
0.25
  5
201
 66
     1
 10
0.0
 20
0.0
 30
0.0
 70
   128
  0
VERTEX
  8
1
  6
CONTINUOUS
 62
   214
 48
0.25
  5
202
 10
34.643241
 20
15.185809
 30
0.0
 40
0.0
 41
0.0
  0
VERTEX
  8
1
  6
CONTINUOUS
 62
   214
 48
0.25
  5
203
 10
34.643241
 20
15.185809
 30
0.0
 40
0.0
 41
0.0
  0
SEQEND
  8
0
  5
204
  0
POLYLINE
  8
1
  6
CONTINUOUS
 62
   214
 48
0.25
  5
205
 66
     1
 10
0.0
 20
0.0
 30
0.0
 70
   128
  0
VERTEX
  8
1
  6
CONTINUOUS
 62
   214
 48
0.25
  5
206
 10
34.643241
 20
15.560809
 30
0.0
 40
0.0
 41
0.0
  0
VERTEX
  8
1
  6
CONTINUOUS
 62
   214
 48
0.25
  5
207
 10
34.518241
 20
15.560809
 30
0.0
 40
0.0
 41
0.0
  0
VERTEX
  8
1
  6
CONTINUOUS
 62
   214
 48
0.25
  5
208
 10
34.518241
 20
14.810809
 30
0.0
 40
0.0
 41
0.0
  0
VERTEX
  8
1
  6
CONTINUOUS
 62
   214
 48
0.25
  5
209
 10
34.643241
 20
14.810809
 30
0.0
 40
0.0
 41
0.0
  0
VERTEX
  8
1
  6
CONTINUOUS
 62
   214
 48
0.25
  5
20A
 10
34.643241
 20
15.560809
 30
0.0
 40
0.0
 41
0.0
  0
SEQEND
  8
0
  5
20B
  0
POLYLINE
  8
1
  6
CONTINUOUS
 62
   214
 48
0.25
  5
20C
 66
     1
 10
0.0
 20
0.0
 30
0.0
 70
   128
  0
VERTEX
  8
1
  6
CONTINUOUS
 62
   214
 48
0.25
  5
20D
 10
29.393241
 20
9.197811
 30
0.0
 40
0.0
 41
0.0
  0
VERTEX
  8
1
  6
CONTINUOUS
 62
   214
 48
0.25
  5
20E
 10
30.868241
 20
9.19781
 30
0.0
 40
0.0
 41
0.0
  0
VERTEX
  8
1
  6
CONTINUOUS
 62
   214
 48
0.25
  5
20F
 10
30.868241
 20
8.94781
 30
0.0
 40
0.0
 41
0.0
  0
SEQEND
  8
0
  5
210
  0
POLYLINE
  8
1
  6
CONTINUOUS
 62
   214
 48
0.25
  5
211
 66
     1
 10
0.0
 20
0.0
 30
0.0
 70
   128
  0
VERTEX
  8
1
  6
CONTINUOUS
 62
   214
 48
0.25
  5
212
 10
29.393241
 20
9.197811
 30
0.0
 40
0.0
 41
0.0
  0
VERTEX
  8
1
  6
CONTINUOUS
 62
   214
 48
0.25
  5
213
 10
29.393241
 20
8.947811
 30
0.0
 40
0.0
 41
0.0
  0
VERTEX
  8
1
  6
CONTINUOUS
 62
   214
 48
0.25
  5
214
 10
30.868241
 20
8.94781
 30
0.0
 40
0.0
 41
0.0
  0
SEQEND
  8
0
  5
215
  0
POLYLINE
  8
1
  6
CONTINUOUS
 62
   214
 48
0.25
  5
216
 66
     1
 10
0.0
 20
0.0
 30
0.0
 70
   128
  0
VERTEX
  8
1
  6
CONTINUOUS
 62
   214
 48
0.25
  5
217
 10
29.987041
 20
10.08581
 30
0.0
 40
0.0
 41
0.0
  0
VERTEX
  8
1
  6
CONTINUOUS
 62
   214
 48
0.25
  5
218
 10
29.987041
 20
8.83581
 30
0.0
 40
0.0
 41
0.0
  0
VERTEX
  8
1
  6
CONTINUOUS
 62
   214
 48
0.25
  5
219
 10
30.299541
 20
8.83581
 30
0.0
 40
0.0
 41
0.0
  0
VERTEX
  8
1
  6
CONTINUOUS
 62
   214
 48
0.25
  5
21A
 10
30.299541
 20
10.08581
 30
0.0
 40
0.0
 41
0.0
  0
SEQEND
  8
0
  5
21B
  0
POLYLINE
  8
1
  6
CONTINUOUS
 62
   214
 48
0.25
  5
21C
 66
     1
 10
0.0
 20
0.0
 30
0.0
 70
   128
  0
VERTEX
  8
1
  6
CONTINUOUS
 62
   214
 48
0.25
  5
21D
 10
29.768241
 20
10.08581
 30
0.0
 40
0.0
 41
0.0
  0
VERTEX
  8
1
  6
CONTINUOUS
 62
   214
 48
0.25
  5
21E
 10
29.768241
 20
10.21081
 30
0.0
 40
0.0
 41
0.0
  0
VERTEX
  8
1
  6
CONTINUOUS
 62
   214
 48
0.25
  5
21F
 10
30.518241
 20
10.21081
 30
0.0
 40
0.0
 41
0.0
  0
VERTEX
  8
1
  6
CONTINUOUS
 62
   214
 48
0.25
  5
220
 10
30.518241
 20
10.08581
 30
0.0
 40
0.0
 41
0.0
  0
VERTEX
  8
1
  6
CONTINUOUS
 62
   214
 48
0.25
  5
221
 10
29.768241
 20
10.08581
 30
0.0
 40
0.0
 41
0.0
  0
SEQEND
  8
0
  5
222
  0
POLYLINE
  8
1
  6
CONTINUOUS
 62
   214
 48
0.25
  5
223
 66
     1
 10
0.0
 20
0.0
 30
0.0
 70
   128
  0
VERTEX
  8
1
  6
CONTINUOUS
 62
   214
 48
0.25
  5
224
 10
29.893241
 20
10.21081
 30
0.0
 40
0.0
 41
0.0
  0
VERTEX
  8
1
  6
CONTINUOUS
 62
   214
 48
0.25
  5
225
 10
29.893241
 20
10.58581
 30
0.0
 40
0.0
 41
0.0
  0
VERTEX
  8
1
  6
CONTINUOUS
 62
   214
 48
0.25
  5
226
 10
30.393241
 20
10.58581
 30
0.0
 40
0.0
 41
0.0
  0
VERTEX
  8
1
  6
CONTINUOUS
 62
   214
 48
0.25
  5
227
 10
30.393241
 20
10.21081
 30
0.0
 40
0.0
 41
0.0
  0
SEQEND
  8
0
  5
228
  0
POLYLINE
  8
1
  6
CONTINUOUS
 62
   174
 48
0.25
  5
229
 66
     1
 10
0.0
 20
0.0
 30
0.0
 70
   128
  0
VERTEX
  8
1
  6
CONTINUOUS
 62
   174
 48
0.25
  5
22A
 10
34.643241
 20
10.085809
 30
0.0
 40
0.0
 41
0.0
  0
VERTEX
  8
1
  6
CONTINUOUS
 62
   174
 48
0.25
  5
22B
 10
35.143241
 20
10.085809
 30
0.0
 40
0.0
 41
0.0
  0
SEQEND
  8
0
  5
22C
  0
POLYLINE
  8
1
  6
CONTINUOUS
 62
   174
 48
0.25
  5
22D
 66
     1
 10
0.0
 20
0.0
 30
0.0
 70
   128
  0
VERTEX
  8
1
  6
CONTINUOUS
 62
   174
 48
0.25
  5
22E
 10
34.643241
 20
10.835809
 30
0.0
 40
0.0
 41
0.0
  0
VERTEX
  8
1
  6
CONTINUOUS
 62
   174
 48
0.25
  5
22F
 10
35.143241
 20
10.835809
 30
0.0
 40
0.0
 41
0.0
  0
SEQEND
  8
0
  5
230
  0
POLYLINE
  8
1
  6
CONTINUOUS
 62
   174
 48
0.25
  5
231
 66
     1
 10
0.0
 20
0.0
 30
0.0
 70
   128
  0
VERTEX
  8
1
  6
CONTINUOUS
 62
   174
 48
0.25
  5
232
 10
34.643241
 20
9.585809
 30
0.0
 40
0.0
 41
0.0
  0
VERTEX
  8
1
  6
CONTINUOUS
 62
   174
 48
0.25
  5
233
 10
34.643241
 20
9.335809
 30
0.0
 40
0.0
 41
0.0
  0
VERTEX
  8
1
  6
CONTINUOUS
 62
   174
 48
0.25
  5
234
 10
35.143241
 20
9.335809
 30
0.0
 40
0.0
 41
0.0
  0
VERTEX
  8
1
  6
CONTINUOUS
 62
   174
 48
0.25
  5
235
 10
35.143241
 20
9.585809
 30
0.0
 40
0.0
 41
0.0
  0
SEQEND
  8
0
  5
236
  0
POLYLINE
  8
1
  6
CONTINUOUS
 62
   214
 48
0.25
  5
237
 66
     1
 10
0.0
 20
0.0
 30
0.0
 70
   128
  0
VERTEX
  8
1
  6
CONTINUOUS
 62
   214
 48
0.25
  5
238
 10
34.393241
 20
9.19721
 30
0.0
 40
0.0
 41
0.0
  0
VERTEX
  8
1
  6
CONTINUOUS
 62
   214
 48
0.25
  5
239
 10
34.393241
 20
9.19721
 30
0.0
 40
0.0
 41
0.0
  0
SEQEND
  8
0
  5
23A
  0
POLYLINE
  8
1
  6
CONTINUOUS
 62
   214
 48
0.25
  5
23B
 66
     1
 10
0.0
 20
0.0
 30
0.0
 70
   128
  0
VERTEX
  8
1
  6
CONTINUOUS
 62
   214
 48
0.25
  5
23C
 10
34.393241
 20
9.19721
 30
0.0
 40
0.0
 41
0.0
  0
VERTEX
  8
1
  6
CONTINUOUS
 62
   214
 48
0.25
  5
23D
 10
34.393241
 20
8.94721
 30
0.0
 40
0.0
 41
0.0
  0
VERTEX
  8
1
  6
CONTINUOUS
 62
   214
 48
0.25
  5
23E
 10
35.393241
 20
8.94721
 30
0.0
 40
0.0
 41
0.0
  0
VERTEX
  8
1
  6
CONTINUOUS
 62
   214
 48
0.25
  5
23F
 10
35.393241
 20
9.19721
 30
0.0
 40
0.0
 41
0.0
  0
VERTEX
  8
1
  6
CONTINUOUS
 62
   214
 48
0.25
  5
240
 10
34.393241
 20
9.19721
 30
0.0
 40
0.0
 41
0.0
  0
SEQEND
  8
0
  5
241
  0
POLYLINE
  8
1
  6
CONTINUOUS
 62
   214
 48
0.25
  5
242
 66
     1
 10
0.0
 20
0.0
 30
0.0
 70
   128
  0
VERTEX
  8
1
  6
CONTINUOUS
 62
   214
 48
0.25
  5
243
 10
34.518241
 20
10.085809
 30
0.0
 40
0.0
 41
0.0
  0
VERTEX
  8
1
  6
CONTINUOUS
 62
   214
 48
0.25
  5
244
 10
34.518241
 20
10.210809
 30
0.0
 40
0.0
 41
0.0
  0
VERTEX
  8
1
  6
CONTINUOUS
 62
   214
 48
0.25
  5
245
 10
35.268241
 20
10.210809
 30
0.0
 40
0.0
 41
0.0
  0
VERTEX
  8
1
  6
CONTINUOUS
 62
   214
 48
0.25
  5
246
 10
35.268241
 20
10.085809
 30
0.0
 40
0.0
 41
0.0
  0
VERTEX
  8
1
  6
CONTINUOUS
 62
   214
 48
0.25
  5
247
 10
34.518241
 20
10.085809
 30
0.0
 40
0.0
 41
0.0
  0
SEQEND
  8
0
  5
248
  0
POLYLINE
  8
1
  6
CONTINUOUS
 62
   214
 48
0.25
  5
249
 66
     1
 10
0.0
 20
0.0
 30
0.0
 70
   128
  0
VERTEX
  8
1
  6
CONTINUOUS
 62
   214
 48
0.25
  5
24A
 10
34.737041
 20
10.085809
 30
0.0
 40
0.0
 41
0.0
  0
VERTEX
  8
1
  6
CONTINUOUS
 62
   214
 48
0.25
  5
24B
 10
34.737041
 20
8.835809
 30
0.0
 40
0.0
 41
0.0
  0
VERTEX
  8
1
  6
CONTINUOUS
 62
   214
 48
0.25
  5
24C
 10
35.049541
 20
8.835809
 30
0.0
 40
0.0
 41
0.0
  0
VERTEX
  8
1
  6
CONTINUOUS
 62
   214
 48
0.25
  5
24D
 10
35.049541
 20
10.085809
 30
0.0
 40
0.0
 41
0.0
  0
SEQEND
  8
0
  5
24E
  0
POLYLINE
  8
1
  6
CONTINUOUS
 62
   214
 48
0.25
  5
24F
 66
     1
 10
0.0
 20
0.0
 30
0.0
 70
   128
  0
VERTEX
  8
1
  6
CONTINUOUS
 62
   214
 48
0.25
  5
250
 10
34.643241
 20
10.210809
 30
0.0
 40
0.0
 41
0.0
  0
VERTEX
  8
1
  6
CONTINUOUS
 62
   214
 48
0.25
  5
251
 10
34.643241
 20
10.585809
 30
0.0
 40
0.0
 41
0.0
  0
VERTEX
  8
1
  6
CONTINUOUS
 62
   214
 48
0.25
  5
252
 10
35.143241
 20
10.585809
 30
0.0
 40
0.0
 41
0.0
  0
VERTEX
  8
1
  6
CONTINUOUS
 62
   214
 48
0.25
  5
253
 10
35.143241
 20
10.210809
 30
0.0
 40
0.0
 41
0.0
  0
SEQEND
  8
0
  5
254
  0
CIRCLE
  8
1
  6
CONTINUOUS
 62
   250
 48
0.25
  5
255
 10
-30.143241
 20
13.373309
 30
0.0
 40
0.1875
210
0.0
220
0.0
230
-1.0
  0
CIRCLE
  8
1
  6
CONTINUOUS
 62
   250
 48
0.25
  5
256
 10
-30.305621
 20
13.092059
 30
0.0
 40
0.1875
210
0.0
220
0.0
230
-1.0
  0
ENDSEC
  0
EOF
