  0
SECTION
  2
HEADER
  9
$ACADVER
  1
AC1009
  9
$INSBASE
 10
0.0
 20
0.0
 30
0.0
  9
$EXTMIN
 10
-9.047081
 20
1.702725
 30
0.0
  9
$EXTMAX
 10
16.69742
 20
13.95329
 30
0.0
  9
$LIMMIN
 10
0.0
 20
0.0
  9
$LIMMAX
 10
0.0
 20
0.0
  9
$ORTHOMODE
 70
     0
  9
$REGENMODE
 70
     1
  9
$FILLMODE
 70
     1
  9
$QTEXTMODE
 70
     0
  9
$MIRRTEXT
 70
     1
  9
$DRAGMODE
 70
     2
  9
$LTSCALE
 40
1.0
  9
$OSMODE
 70
     0
  9
$ATTMODE
 70
     1
  9
$TEXTSIZE
 40
0.2
  9
$TRACEWID
 40
0.05
  9
$TEXTSTYLE
  7
STANDARD
  9
$CLAYER
  8
0
  9
$CELTYPE
  6
CONTINUOUS
  9
$CECOLOR
 62
   256
  9
$DIMSCALE
 40
1.0
  9
$DIMASZ
 40
0.18
  9
$DIMEXO
 40
0.0625
  9
$DIMDLI
 40
0.38
  9
$DIMRND
 40
0.0
  9
$DIMDLE
 40
0.0
  9
$DIMEXE
 40
0.18
  9
$DIMTP
 40
0.0
  9
$DIMTM
 40
0.0
  9
$DIMTXT
 40
0.18
  9
$DIMCEN
 40
0.09
  9
$DIMTSZ
 40
0.0
  9
$DIMTOL
 70
     0
  9
$DIMLIM
 70
     0
  9
$DIMTIH
 70
     1
  9
$DIMTOH
 70
     1
  9
$DIMSE1
 70
     0
  9
$DIMSE2
 70
     0
  9
$DIMTAD
 70
     0
  9
$DIMZIN
 70
     0
  9
$DIMBLK
  1

  9
$DIMASO
 70
     1
  9
$DIMSHO
 70
     1
  9
$DIMPOST
  1

  9
$DIMAPOST
  1

  9
$DIMALT
 70
     0
  9
$DIMALTD
 70
     2
  9
$DIMALTF
 40
25.4
  9
$DIMLFAC
 40
1.0
  9
$DIMTOFL
 70
     0
  9
$DIMTVP
 40
0.0
  9
$DIMTIX
 70
     0
  9
$DIMSOXD
 70
     0
  9
$DIMSAH
 70
     0
  9
$DIMBLK1
  1

  9
$DIMBLK2
  1

  9
$DIMSTYLE
  2
STANDARD
  9
$DIMCLRD
 70
     0
  9
$DIMCLRE
 70
     0
  9
$DIMCLRT
 70
     0
  9
$DIMTFAC
 40
1.0
  9
$DIMGAP
 40
0.09
  9
$LUNITS
 70
     2
  9
$LUPREC
 70
     4
  9
$AXISMODE
 70
     0
  9
$AXISUNIT
 10
0.0
 20
0.0
  9
$SKETCHINC
 40
0.1
  9
$FILLETRAD
 40
0.0
  9
$AUNITS
 70
     0
  9
$AUPREC
 70
     0
  9
$MENU
  1
acad
  9
$ELEVATION
 40
0.0
  9
$PELEVATION
 40
0.0
  9
$THICKNESS
 40
0.0
  9
$LIMCHECK
 70
     0
  9
$BLIPMODE
 70
     1
  9
$CHAMFERA
 40
0.0
  9
$CHAMFERB
 40
0.0
  9
$SKPOLY
 70
     0
  9
$TDCREATE
 40
0.000000000
  9
$TDUPDATE
 40
0.000000000
  9
$TDINDWG
 40
0.0000000000
  9
$TDUSRTIMER
 40
0.0000000000
  9
$USRTIMER
 70
     1
  9
$ANGBASE
 50
0.0
  9
$ANGDIR
 70
     0
  9
$PDMODE
 70
     0
  9
$PDSIZE
 40
0.0
  9
$PLINEWID
 40
0.0
  9
$COORDS
 70
     0
  9
$SPLFRAME
 70
     0
  9
$SPLINETYPE
 70
     6
  9
$SPLINESEGS
 70
     8
  9
$ATTDIA
 70
     0
  9
$ATTREQ
 70
     1
  9
$HANDLING
 70
     1
  9
$HANDSEED
  5
369
  9
$SURFTAB1
 70
     6
  9
$SURFTAB2
 70
     6
  9
$SURFTYPE
 70
     6
  9
$SURFU
 70
     6
  9
$SURFV
 70
     6
  9
$UCSNAME
  2

  9
$UCSORG
 10
0.0
 20
0.0
 30
0.0
  9
$UCSXDIR
 10
1.0
 20
0.0
 30
0.0
  9
$UCSYDIR
 10
0.0
 20
1.0
 30
0.0
  9
$PUCSNAME
  2

  9
$PUCSORG
 10
0.0
 20
0.0
 30
0.0
  9
$PUCSXDIR
 10
1.0
 20
0.0
 30
0.0
  9
$PUCSYDIR
 10
0.0
 20
1.0
 30
0.0
  9
$USERI1
 70
     0
  9
$USERI2
 70
     0
  9
$USERI3
 70
     0
  9
$USERI4
 70
     0
  9
$USERI5
 70
     0
  9
$USERR1
 40
0.0
  9
$USERR2
 40
0.0
  9
$USERR3
 40
0.0
  9
$USERR4
 40
0.0
  9
$USERR5
 40
0.0
  9
$WORLDVIEW
 70
     1
  9
$SHADEDGE
 70
     3
  9
$SHADEDIF
 70
    70
  9
$TILEMODE
 70
     1
  9
$MAXACTVP
 70
    16
  9
$PINSBASE
 10
0.0
 20
0.0
 30
0.0
  9
$PLIMCHECK
 70
     0
  9
$PEXTMIN
 10
1.000000E+20
 20
1.000000E+20
 30
1.000000E+20
  9
$PEXTMAX
 10
-1.000000E+20
 20
-1.000000E+20
 30
-1.000000E+20
  9
$PLIMMIN
 10
0.0
 20
0.0
  9
$PLIMMAX
 10
12.0
 20
9.0
  9
$UNITMODE
 70
     0
  9
$VISRETAIN
 70
     0
  9
$PLINEGEN
 70
     0
  9
$PSLTSCALE
 70
     0
  9
$TREEDEPTH
 70
  3020
  9
$DWGCODEPAGE
  3
dos850
  0
ENDSEC
  0
SECTION
  2
TABLES
  0
TABLE
  2
VPORT
 70
     2
  0
VPORT
  2
*ACTIVE
 70
     0
 10
0.0
 20
0.0
 11
1.0
 21
1.0
 12
6.591288
 22
4.579184
 13
0.0
 23
0.0
 14
1.0
 24
1.0
 15
0.0
 25
0.0
 16
0.0
 26
0.0
 36
1.0
 17
0.0
 27
0.0
 37
0.0
 40
9.158369
 41
0.688564
 42
50.0
 43
0.0
 44
0.0
 50
0.0
 51
0.0
 71
     0
 72
   100
 73
     1
 74
     1
 75
     0
 76
     0
 77
     0
 78
     0
  0
VPORT
  2
DCADVPORT
 70
     0
 10
-9.047081
 20
1.702725
 11
16.69742
 21
13.95329
 12
6.21
 22
9.02
 13
0.0
 23
0.0
 14
1.0
 24
1.0
 15
0.0
 25
0.0
 16
0.0
 26
0.0
 36
1.0
 17
0.0
 27
0.0
 37
0.0
 40
18.04
 41
0.688564
 42
50.0
 43
1.0
 44
1.0
 50
0.0
 51
0.0
 71
     0
 72
   100
 73
     1
 74
     1
 75
     0
 76
     0
 77
     0
 78
     0
  0
ENDTAB
  0
TABLE
  2
LTYPE
 70
    13
  0
LTYPE
  2
CONTINUOUS
 70
     0
  3
Solid line
 72
    65
 73
     0
 40
0.0
  0
LTYPE
  2
CONTINUOUS
 70
     0
  3
Solid line
 72
    65
 73
     0
 40
0.0
  0
LTYPE
  2
BORDER
 70
    64
  3
__ __ . __ __ . __ __ . __ __ . __ __ . __ __ .
 72
    65
 73
     6
 40
1.75
 49
0.5
 49
-0.25
 49
0.5
 49
-0.25
 49
0.0
 49
-0.25
  0
LTYPE
  2
BORDER2
 70
    64
  3
__.__.__.__.__.__.__.__.__.__.__.__.__.__.__.__
 72
    65
 73
     6
 40
0.875
 49
0.25
 49
-0.125
 49
0.25
 49
-0.125
 49
0.0
 49
-0.125
  0
LTYPE
  2
CENTER
 70
    64
  3
____ _ ____ _ ____ _ ____ _ ____ _ ____ _ ____ 
 72
    65
 73
     4
 40
2.0
 49
1.25
 49
-0.25
 49
0.25
 49
-0.25
  0
LTYPE
  2
DASHDOT
 70
    64
  3
__ . __ . __ . __ . __ . __ . __ . __ . __ . __
 72
    65
 73
     4
 40
1.0
 49
0.5
 49
-0.25
 49
0.0
 49
-0.25
  0
LTYPE
  2
DASHDOT2
 70
    64
  3
_._._._._._._._._._._._._._._._._._._._._._._._
 72
    65
 73
     4
 40
0.5
 49
0.25
 49
-0.125
 49
0.0
 49
-0.125
  0
LTYPE
  2
DASHED
 70
    64
  3
__ __ __ __ __ __ __ __ __ __ __ __ __ __ __ __
 72
    65
 73
     2
 40
0.75
 49
0.5
 49
-0.25
  0
LTYPE
  2
DIVIDE
 70
    64
  3
____ . . ____ . . ____ . . ____ . . ____ . . __
 72
    65
 73
     6
 40
1.25
 49
0.5
 49
-0.25
 49
0.0
 49
-0.25
 49
0.0
 49
-0.25
  0
LTYPE
  2
DIVIDE2
 70
    64
  3
__..__..__..__..__..__..__..__..__..__..__..__.
 72
    65
 73
     6
 40
0.625
 49
0.25
 49
-0.125
 49
0.0
 49
-0.125
 49
0.0
 49
-0.125
  0
LTYPE
  2
DOT
 70
    64
  3
. . . . . . . . . . . . . . . . . . . . . . . .
 72
    65
 73
     2
 40
0.25
 49
0.0
 49
-0.25
  0
LTYPE
  2
HIDDEN
 70
    64
  3
__ __ __ __ __ __ __ __ __ __ __ __ __ __ __ __
 72
    65
 73
     2
 40
0.375
 49
0.25
 49
-0.125
  0
LTYPE
  2
PHANTOM
 70
    64
  3
______  __  __  ______  __  __  ______  __  __ 
 72
    65
 73
     6
 40
2.5
 49
1.25
 49
-0.25
 49
0.25
 49
-0.25
 49
0.25
 49
-0.25
  0
ENDTAB
  0
TABLE
  2
LAYER
 70
     2
  0
LAYER
  2
0
 70
     0
 62
     7
  6
CONTINUOUS
  0
LAYER
  2
1
 70
     0
 62
   250
  6
CONTINUOUS
  0
ENDTAB
  0
TABLE
  2
STYLE
 70
     2
  0
STYLE
  2
STANDARD
 70
     0
 40
0.0
 41
1.0
 50
0.0
 71
     0
 42
0.0
  3
txt
  4

  0
STYLE
  2
BIGFONT
 70
    64
 40
3.0
 41
1.0
 50
0.0
 71
     0
 42
0.2
  3

  4
BIGFONT
  0
ENDTAB
  0
TABLE
  2
VIEW
 70
     0
  0
ENDTAB
  0
TABLE
  2
UCS
 70
     0
  0
ENDTAB
  0
TABLE
  2
APPID
 70
     1
  0
APPID
  2
ACAD
 70
     0
  0
ENDTAB
  0
TABLE
  2
DIMSTYLE
 70
     1
  0
DIMSTYLE
  2
STANDARD
 70
     0
  3

  4

  5

  6

  7

 40
1.0
 41
0.18
 42
0.0625
 43
0.38
 44
0.18
 45
0.0
 46
0.0
 47
0.0
 48
0.0
140
0.18
141
0.09
142
0.0
143
25.4
144
1.0
145
0.0
146
1.0
147
0.09
 71
     0
 72
     0
 73
     1
 74
     1
 75
     0
 76
     0
 77
     0
 78
     0
170
     0
171
     2
172
     0
173
     0
174
     0
175
     0
176
     0
177
     0
178
     0
  0
ENDTAB
  0
ENDSEC
  0
SECTION
  2
BLOCKS
  0
ENDSEC
  0
SECTION
  2
ENTITIES
  0
POLYLINE
  8
1
  6
CONTINUOUS
 62
   174
 48
0.229803
  5
2C
 66
     1
 10
0.0
 20
0.0
 30
0.0
 70
   128
  0
VERTEX
  8
1
  6
CONTINUOUS
 62
   174
 48
0.229803
  5
2D
 10
2.184919
 20
2.08079
 30
0.0
 40
0.0
 41
0.0
  0
VERTEX
  8
1
  6
CONTINUOUS
 62
   174
 48
0.229803
  5
2E
 10
2.184919
 20
4.64079
 30
0.0
 40
0.0
 41
0.0
  0
SEQEND
  8
0
  5
2F
  0
POLYLINE
  8
1
  6
CONTINUOUS
 62
   174
 48
0.229803
  5
30
 66
     1
 10
0.0
 20
0.0
 30
0.0
 70
   128
  0
VERTEX
  8
1
  6
CONTINUOUS
 62
   174
 48
0.229803
  5
31
 10
2.184919
 20
4.64079
 30
0.0
 40
0.0
 41
0.0
  0
VERTEX
  8
1
  6
CONTINUOUS
 62
   174
 48
0.229803
  5
32
 10
8.234919
 20
4.64079
 30
0.0
 40
0.0
 41
0.0
  0
SEQEND
  8
0
  5
33
  0
POLYLINE
  8
1
  6
CONTINUOUS
 62
   174
 48
0.229803
  5
34
 66
     1
 10
0.0
 20
0.0
 30
0.0
 70
   128
  0
VERTEX
  8
1
  6
CONTINUOUS
 62
   174
 48
0.229803
  5
35
 10
2.184919
 20
2.08079
 30
0.0
 40
0.0
 41
0.0
  0
VERTEX
  8
1
  6
CONTINUOUS
 62
   174
 48
0.229803
  5
36
 10
8.234919
 20
2.08079
 30
0.0
 40
0.0
 41
0.0
  0
SEQEND
  8
0
  5
37
  0
POLYLINE
  8
1
  6
CONTINUOUS
 62
   174
 48
0.229803
  5
38
 66
     1
 10
0.0
 20
0.0
 30
0.0
 70
   128
  0
VERTEX
  8
1
  6
CONTINUOUS
 62
   174
 48
0.229803
  5
39
 10
8.234919
 20
2.08079
 30
0.0
 40
0.0
 41
0.0
  0
VERTEX
  8
1
  6
CONTINUOUS
 62
   174
 48
0.229803
  5
3A
 10
8.234919
 20
4.64079
 30
0.0
 40
0.0
 41
0.0
  0
SEQEND
  8
0
  5
3B
  0
POLYLINE
  8
1
  6
CONTINUOUS
 62
   250
 48
0.229803
  5
3C
 66
     1
 10
0.0
 20
0.0
 30
0.0
 70
   128
  0
VERTEX
  8
1
  6
CONTINUOUS
 62
   250
 48
0.229803
  5
3D
 10
6.449919
 20
3.36079
 30
0.0
 40
0.0
 41
0.0
  0
VERTEX
  8
1
  6
CONTINUOUS
 62
   250
 48
0.229803
  5
3E
 10
6.449919
 20
3.36079
 30
0.0
 40
0.0
 41
0.0
  0
SEQEND
  8
0
  5
3F
  0
POLYLINE
  8
1
  6
CONTINUOUS
 62
   250
 48
0.125
  5
40
 66
     1
 10
0.0
 20
0.0
 30
0.0
 70
   128
  0
VERTEX
  8
1
  6
CONTINUOUS
 62
   250
 48
0.125
  5
41
 10
9.73492
 20
4.64079
 30
0.0
 40
0.0
 41
0.0
  0
VERTEX
  8
1
  6
CONTINUOUS
 62
   250
 48
0.125
  5
42
 10
9.73492
 20
4.64079
 30
0.0
 40
0.0
 41
0.0
  0
SEQEND
  8
0
  5
43
  0
POLYLINE
  8
1
  6
CONTINUOUS
 62
   250
 48
0.125
  5
44
 66
     1
 10
0.0
 20
0.0
 30
0.0
 70
   128
  0
VERTEX
  8
1
  6
CONTINUOUS
 62
   250
 48
0.125
  5
45
 10
9.73492
 20
2.08079
 30
0.0
 40
0.0
 41
0.0
  0
VERTEX
  8
1
  6
CONTINUOUS
 62
   250
 48
0.125
  5
46
 10
9.73492
 20
4.64079
 30
0.0
 40
0.0
 41
0.0
  0
SEQEND
  8
0
  5
47
  0
POLYLINE
  8
1
  6
CONTINUOUS
 62
   250
 48
0.125
  5
48
 66
     1
 10
0.0
 20
0.0
 30
0.0
 70
   128
  0
VERTEX
  8
1
  6
CONTINUOUS
 62
   250
 48
0.125
  5
49
 10
9.73492
 20
4.64079
 30
0.0
 40
0.0
 41
0.0
  0
VERTEX
  8
1
  6
CONTINUOUS
 62
   250
 48
0.125
  5
4A
 10
10.359919
 20
4.64079
 30
0.0
 40
0.0
 41
0.0
  0
SEQEND
  8
0
  5
4B
  0
POLYLINE
  8
1
  6
CONTINUOUS
 62
   250
 48
0.125
  5
4C
 66
     1
 10
0.0
 20
0.0
 30
0.0
 70
   128
  0
VERTEX
  8
1
  6
CONTINUOUS
 62
   250
 48
0.125
  5
4D
 10
9.73492
 20
2.08079
 30
0.0
 40
0.0
 41
0.0
  0
VERTEX
  8
1
  6
CONTINUOUS
 62
   250
 48
0.125
  5
4E
 10
10.359919
 20
2.08079
 30
0.0
 40
0.0
 41
0.0
  0
SEQEND
  8
0
  5
4F
  0
POLYLINE
  8
1
  6
CONTINUOUS
 62
   250
 48
0.125
  5
50
 66
     1
 10
0.0
 20
0.0
 30
0.0
 70
   128
  0
VERTEX
  8
1
  6
CONTINUOUS
 62
   250
 48
0.125
  5
51
 10
10.359919
 20
2.08079
 30
0.0
 40
0.0
 41
0.0
  0
VERTEX
  8
1
  6
CONTINUOUS
 62
   250
 48
0.125
  5
52
 10
10.359919
 20
2.52079
 30
0.0
 40
0.0
 41
0.0
  0
SEQEND
  8
0
  5
53
  0
POLYLINE
  8
1
  6
CONTINUOUS
 62
   250
 48
0.125
  5
54
 66
     1
 10
0.0
 20
0.0
 30
0.0
 70
   128
  0
VERTEX
  8
1
  6
CONTINUOUS
 62
   250
 48
0.125
  5
55
 10
10.359919
 20
4.64079
 30
0.0
 40
0.0
 41
0.0
  0
VERTEX
  8
1
  6
CONTINUOUS
 62
   250
 48
0.125
  5
56
 10
10.359919
 20
4.20079
 30
0.0
 40
0.0
 41
0.0
  0
SEQEND
  8
0
  5
57
  0
POLYLINE
  8
1
  6
CONTINUOUS
 62
   250
 48
0.125
  5
58
 66
     1
 10
0.0
 20
0.0
 30
0.0
 70
   128
  0
VERTEX
  8
1
  6
CONTINUOUS
 62
   250
 48
0.125
  5
59
 10
10.109919
 20
4.345127
 30
0.0
 40
0.0
 41
0.0
  0
VERTEX
  8
1
  6
CONTINUOUS
 62
   250
 48
0.125
  5
5A
 10
10.109919
 20
2.376452
 30
0.0
 40
0.0
 41
0.0
  0
SEQEND
  8
0
  5
5B
  0
POLYLINE
  8
1
  6
CONTINUOUS
 62
   250
 48
0.125
  5
5C
 66
     1
 10
0.0
 20
0.0
 30
0.0
 70
   128
  0
VERTEX
  8
1
  6
CONTINUOUS
 62
   250
 48
0.125
  5
5D
 10
10.109919
 20
4.345127
 30
0.0
 40
0.0
 41
0.0
  0
VERTEX
  8
1
  6
CONTINUOUS
 62
   250
 48
0.125
  5
5E
 10
10.359919
 20
4.20079
 30
0.0
 40
0.0
 41
0.0
  0
SEQEND
  8
0
  5
5F
  0
POLYLINE
  8
1
  6
CONTINUOUS
 62
   250
 48
0.125
  5
60
 66
     1
 10
0.0
 20
0.0
 30
0.0
 70
   128
  0
VERTEX
  8
1
  6
CONTINUOUS
 62
   250
 48
0.125
  5
61
 10
10.109919
 20
2.376452
 30
0.0
 40
0.0
 41
0.0
  0
VERTEX
  8
1
  6
CONTINUOUS
 62
   250
 48
0.125
  5
62
 10
10.359919
 20
2.52079
 30
0.0
 40
0.0
 41
0.0
  0
SEQEND
  8
0
  5
63
  0
POLYLINE
  8
1
  6
CONTINUOUS
 62
   250
 48
0.125
  5
64
 66
     1
 10
0.0
 20
0.0
 30
0.0
 70
   128
  0
VERTEX
  8
1
  6
CONTINUOUS
 62
   250
 48
0.125
  5
65
 10
9.73492
 20
4.76579
 30
0.0
 40
0.0
 41
0.0
  0
VERTEX
  8
1
  6
CONTINUOUS
 62
   250
 48
0.125
  5
66
 10
9.73492
 20
5.16171
 30
0.0
 40
0.0
 41
0.0
  0
SEQEND
  8
0
  5
67
  0
POLYLINE
  8
1
  6
CONTINUOUS
 62
   250
 48
0.125
  5
68
 66
     1
 10
0.0
 20
0.0
 30
0.0
 70
   128
  0
VERTEX
  8
1
  6
CONTINUOUS
 62
   250
 48
0.125
  5
69
 10
10.359919
 20
4.76579
 30
0.0
 40
0.0
 41
0.0
  0
VERTEX
  8
1
  6
CONTINUOUS
 62
   250
 48
0.125
  5
6A
 10
10.359919
 20
5.16171
 30
0.0
 40
0.0
 41
0.0
  0
SEQEND
  8
0
  5
6B
  0
TEXT
  8
1
 62
   250
 48
0.0
  5
6C
 10
9.811706
 20
5.03671
 30
0.0
 40
0.125
  1
0.625
 72
     5
 11
10.283133
 21
5.03671
 31
0.0
210
0.0
220
0.0
230
1.0
  0
POLYLINE
  8
1
  6
CONTINUOUS
 62
   250
 48
0.125
  5
6D
 66
     1
 10
0.0
 20
0.0
 30
0.0
 70
   128
  0
VERTEX
  8
1
  6
CONTINUOUS
 62
   250
 48
0.125
  5
6E
 10
9.73492
 20
1.95579
 30
0.0
 40
0.0
 41
0.0
  0
VERTEX
  8
1
  6
CONTINUOUS
 62
   250
 48
0.125
  5
6F
 10
9.73492
 20
1.702725
 30
0.0
 40
0.0
 41
0.0
  0
SEQEND
  8
0
  5
70
  0
POLYLINE
  8
1
  6
CONTINUOUS
 62
   250
 48
0.125
  5
71
 66
     1
 10
0.0
 20
0.0
 30
0.0
 70
   128
  0
VERTEX
  8
1
  6
CONTINUOUS
 62
   250
 48
0.125
  5
72
 10
10.109919
 20
2.251452
 30
0.0
 40
0.0
 41
0.0
  0
VERTEX
  8
1
  6
CONTINUOUS
 62
   250
 48
0.125
  5
73
 10
10.109919
 20
1.702725
 30
0.0
 40
0.0
 41
0.0
  0
SEQEND
  8
0
  5
74
  0
TEXT
  8
1
 62
   250
 48
0.0
  5
75
 10
9.688491
 20
1.702725
 30
0.0
 40
0.125
  1
0.375
 50
0.000027
 72
     5
 11
10.156348
 21
1.702725
 31
0.0
210
0.0
220
0.0
230
1.0
  0
POLYLINE
  8
1
  6
CONTINUOUS
 62
   250
 48
0.125
  5
76
 66
     1
 10
0.0
 20
0.0
 30
0.0
 70
   128
  0
VERTEX
  8
1
  6
CONTINUOUS
 62
   250
 48
0.125
  5
77
 10
10.484919
 20
2.52079
 30
0.0
 40
0.0
 41
0.0
  0
VERTEX
  8
1
  6
CONTINUOUS
 62
   250
 48
0.125
  5
78
 10
10.817921
 20
2.52079
 30
0.0
 40
0.0
 41
0.0
  0
SEQEND
  8
0
  5
79
  0
POLYLINE
  8
1
  6
CONTINUOUS
 62
   250
 48
0.125
  5
7A
 66
     1
 10
0.0
 20
0.0
 30
0.0
 70
   128
  0
VERTEX
  8
1
  6
CONTINUOUS
 62
   250
 48
0.125
  5
7B
 10
10.484919
 20
4.20079
 30
0.0
 40
0.0
 41
0.0
  0
VERTEX
  8
1
  6
CONTINUOUS
 62
   250
 48
0.125
  5
7C
 10
10.817921
 20
4.20079
 30
0.0
 40
0.0
 41
0.0
  0
SEQEND
  8
0
  5
7D
  0
POLYLINE
  8
1
  6
CONTINUOUS
 62
   250
 48
0.125
  5
7E
 66
     1
 10
0.0
 20
0.0
 30
0.0
 70
   128
  0
VERTEX
  8
1
  6
CONTINUOUS
 62
   250
 48
0.125
  5
7F
 10
10.755421
 20
3.081623
 30
0.0
 40
0.0
 41
0.0
  0
VERTEX
  8
1
  6
CONTINUOUS
 62
   250
 48
0.125
  5
80
 10
10.755421
 20
2.52079
 30
0.0
 40
0.0
 41
0.0
  0
SEQEND
  8
0
  5
81
  0
POLYLINE
  8
1
  6
CONTINUOUS
 62
   250
 48
0.125
  5
82
 66
     1
 10
0.0
 20
0.0
 30
0.0
 70
   128
  0
VERTEX
  8
1
  6
CONTINUOUS
 62
   250
 48
0.125
  5
83
 10
10.780419
 20
2.64579
 30
0.0
 40
0.0
 41
0.0
  0
VERTEX
  8
1
  6
CONTINUOUS
 62
   250
 48
0.125
  5
84
 10
10.755421
 20
2.52079
 30
0.0
 40
0.0
 41
0.0
  0
VERTEX
  8
1
  6
CONTINUOUS
 62
   250
 48
0.125
  5
85
 10
10.73042
 20
2.64579
 30
0.0
 40
0.0
 41
0.0
  0
SEQEND
  8
0
  5
86
  0
POLYLINE
  8
1
  6
CONTINUOUS
 62
   250
 48
0.125
  5
87
 66
     1
 10
0.0
 20
0.0
 30
0.0
 70
   128
  0
VERTEX
  8
1
  6
CONTINUOUS
 62
   250
 48
0.125
  5
88
 10
10.755421
 20
3.639956
 30
0.0
 40
0.0
 41
0.0
  0
VERTEX
  8
1
  6
CONTINUOUS
 62
   250
 48
0.125
  5
89
 10
10.755421
 20
4.20079
 30
0.0
 40
0.0
 41
0.0
  0
SEQEND
  8
0
  5
8A
  0
POLYLINE
  8
1
  6
CONTINUOUS
 62
   250
 48
0.125
  5
8B
 66
     1
 10
0.0
 20
0.0
 30
0.0
 70
   128
  0
VERTEX
  8
1
  6
CONTINUOUS
 62
   250
 48
0.125
  5
8C
 10
10.73042
 20
4.07579
 30
0.0
 40
0.0
 41
0.0
  0
VERTEX
  8
1
  6
CONTINUOUS
 62
   250
 48
0.125
  5
8D
 10
10.755421
 20
4.20079
 30
0.0
 40
0.0
 41
0.0
  0
VERTEX
  8
1
  6
CONTINUOUS
 62
   250
 48
0.125
  5
8E
 10
10.780419
 20
4.07579
 30
0.0
 40
0.0
 41
0.0
  0
SEQEND
  8
0
  5
8F
  0
TEXT
  8
1
 62
   250
 48
0.0
  5
90
 10
10.817921
 20
3.144123
 30
0.0
 40
0.125
  1
1.680
 50
90.0
 72
     5
 11
10.817921
 21
3.577456
 31
0.0
210
0.0
220
0.0
230
1.0
  0
POLYLINE
  8
1
  6
CONTINUOUS
 62
   250
 48
0.125
  5
91
 66
     1
 10
0.0
 20
0.0
 30
0.0
 70
   128
  0
VERTEX
  8
1
  6
CONTINUOUS
 62
   250
 48
0.125
  5
92
 10
10.234919
 20
4.345127
 30
0.0
 40
0.0
 41
0.0
  0
VERTEX
  8
1
  6
CONTINUOUS
 62
   250
 48
0.125
  5
93
 10
11.224094
 20
4.345127
 30
0.0
 40
0.0
 41
0.0
  0
SEQEND
  8
0
  5
94
  0
POLYLINE
  8
1
  6
CONTINUOUS
 62
   250
 48
0.125
  5
95
 66
     1
 10
0.0
 20
0.0
 30
0.0
 70
   128
  0
VERTEX
  8
1
  6
CONTINUOUS
 62
   250
 48
0.125
  5
96
 10
10.234919
 20
2.376452
 30
0.0
 40
0.0
 41
0.0
  0
VERTEX
  8
1
  6
CONTINUOUS
 62
   250
 48
0.125
  5
97
 10
11.224094
 20
2.376452
 30
0.0
 40
0.0
 41
0.0
  0
SEQEND
  8
0
  5
98
  0
POLYLINE
  8
1
  6
CONTINUOUS
 62
   250
 48
0.125
  5
99
 66
     1
 10
0.0
 20
0.0
 30
0.0
 70
   128
  0
VERTEX
  8
1
  6
CONTINUOUS
 62
   250
 48
0.125
  5
9A
 10
11.161594
 20
3.639956
 30
0.0
 40
0.0
 41
0.0
  0
VERTEX
  8
1
  6
CONTINUOUS
 62
   250
 48
0.125
  5
9B
 10
11.161594
 20
4.345127
 30
0.0
 40
0.0
 41
0.0
  0
SEQEND
  8
0
  5
9C
  0
POLYLINE
  8
1
  6
CONTINUOUS
 62
   250
 48
0.125
  5
9D
 66
     1
 10
0.0
 20
0.0
 30
0.0
 70
   128
  0
VERTEX
  8
1
  6
CONTINUOUS
 62
   250
 48
0.125
  5
9E
 10
11.136594
 20
4.220127
 30
0.0
 40
0.0
 41
0.0
  0
VERTEX
  8
1
  6
CONTINUOUS
 62
   250
 48
0.125
  5
9F
 10
11.161594
 20
4.345127
 30
0.0
 40
0.0
 41
0.0
  0
VERTEX
  8
1
  6
CONTINUOUS
 62
   250
 48
0.125
  5
A0
 10
11.186594
 20
4.220127
 30
0.0
 40
0.0
 41
0.0
  0
SEQEND
  8
0
  5
A1
  0
POLYLINE
  8
1
  6
CONTINUOUS
 62
   250
 48
0.125
  5
A2
 66
     1
 10
0.0
 20
0.0
 30
0.0
 70
   128
  0
VERTEX
  8
1
  6
CONTINUOUS
 62
   250
 48
0.125
  5
A3
 10
11.161594
 20
3.081623
 30
0.0
 40
0.0
 41
0.0
  0
VERTEX
  8
1
  6
CONTINUOUS
 62
   250
 48
0.125
  5
A4
 10
11.161594
 20
2.376452
 30
0.0
 40
0.0
 41
0.0
  0
SEQEND
  8
0
  5
A5
  0
POLYLINE
  8
1
  6
CONTINUOUS
 62
   250
 48
0.125
  5
A6
 66
     1
 10
0.0
 20
0.0
 30
0.0
 70
   128
  0
VERTEX
  8
1
  6
CONTINUOUS
 62
   250
 48
0.125
  5
A7
 10
11.186594
 20
2.501452
 30
0.0
 40
0.0
 41
0.0
  0
VERTEX
  8
1
  6
CONTINUOUS
 62
   250
 48
0.125
  5
A8
 10
11.161594
 20
2.376452
 30
0.0
 40
0.0
 41
0.0
  0
VERTEX
  8
1
  6
CONTINUOUS
 62
   250
 48
0.125
  5
A9
 10
11.136594
 20
2.501452
 30
0.0
 40
0.0
 41
0.0
  0
SEQEND
  8
0
  5
AA
  0
TEXT
  8
1
 62
   250
 48
0.0
  5
AB
 10
11.224094
 20
3.144123
 30
0.0
 40
0.125
  1
1.969
 50
90.0
 72
     5
 11
11.224094
 21
3.577456
 31
0.0
210
0.0
220
0.0
230
1.0
  0
POLYLINE
  8
1
  6
CONTINUOUS
 62
   174
 48
0.125
  5
AC
 66
     1
 10
0.0
 20
0.0
 30
0.0
 70
   128
  0
VERTEX
  8
1
  6
CONTINUOUS
 62
   174
 48
0.125
  5
AD
 10
2.184919
 20
7.64079
 30
0.0
 40
0.0
 41
0.0
  0
VERTEX
  8
1
  6
CONTINUOUS
 62
   174
 48
0.125
  5
AE
 10
2.184919
 20
7.01579
 30
0.0
 40
0.0
 41
0.0
  0
SEQEND
  8
0
  5
AF
  0
POLYLINE
  8
1
  6
CONTINUOUS
 62
   174
 48
0.125
  5
B0
 66
     1
 10
0.0
 20
0.0
 30
0.0
 70
   128
  0
VERTEX
  8
1
  6
CONTINUOUS
 62
   174
 48
0.125
  5
B1
 10
8.234919
 20
7.64079
 30
0.0
 40
0.0
 41
0.0
  0
VERTEX
  8
1
  6
CONTINUOUS
 62
   174
 48
0.125
  5
B2
 10
8.234919
 20
7.01579
 30
0.0
 40
0.0
 41
0.0
  0
SEQEND
  8
0
  5
B3
  0
POLYLINE
  8
1
  6
CONTINUOUS
 62
   174
 48
0.125
  5
B4
 66
     1
 10
0.0
 20
0.0
 30
0.0
 70
   128
  0
VERTEX
  8
1
  6
CONTINUOUS
 62
   174
 48
0.125
  5
B5
 10
8.234919
 20
7.01579
 30
0.0
 40
0.0
 41
0.0
  0
VERTEX
  8
1
  6
CONTINUOUS
 62
   174
 48
0.125
  5
B6
 10
2.184919
 20
7.01579
 30
0.0
 40
0.0
 41
0.0
  0
SEQEND
  8
0
  5
B7
  0
CIRCLE
  8
1
  6
CONTINUOUS
 62
   174
 48
0.229803
  5
B8
 10
-6.449919
 20
3.36079
 30
0.0
 40
0.788
210
0.0
220
0.0
230
-1.0
  0
POLYLINE
  8
1
  6
CONTINUOUS
 62
    14
 48
0.229803
  5
B9
 66
     1
 10
0.0
 20
0.0
 30
0.0
 70
   128
  0
VERTEX
  8
1
  6
CONTINUOUS
 62
    14
 48
0.229803
  5
BA
 10
2.184919
 20
6.31079
 30
0.0
 40
0.0
 41
0.0
  0
VERTEX
  8
1
  6
CONTINUOUS
 62
    14
 48
0.229803
  5
BB
 10
3.184919
 20
6.31079
 30
0.0
 40
0.0
 41
0.0
  0
SEQEND
  8
0
  5
BC
  0
CIRCLE
  8
1
  6
CONTINUOUS
 62
   250
 48
0.229803
  5
BD
 10
-3.65992
 20
9.86879
 30
0.0
 40
1.082
210
0.0
220
0.0
230
-1.0
  0
CIRCLE
  8
1
  6
CONTINUOUS
 62
   250
 48
0.229803
  5
BE
 10
-3.65992
 20
9.86879
 30
0.0
 40
1.575
210
0.0
220
0.0
230
-1.0
  0
CIRCLE
  8
1
  6
CONTINUOUS
 62
   250
 48
0.229803
  5
BF
 10
-3.65992
 20
9.86879
 30
0.0
 40
0.232
210
0.0
220
0.0
230
-1.0
  0
POLYLINE
  8
1
  6
CONTINUOUS
 62
   250
 48
0.229803
  5
C0
 66
     1
 10
0.0
 20
0.0
 30
0.0
 70
   128
  0
VERTEX
  8
1
  6
CONTINUOUS
 62
   250
 48
0.229803
  5
C1
 10
4.899919
 20
6.31079
 30
0.0
 40
0.0
 41
0.0
  0
VERTEX
  8
1
  6
CONTINUOUS
 62
   250
 48
0.229803
  5
C2
 10
4.899919
 20
6.31079
 30
0.0
 40
0.0
 41
0.0
  0
SEQEND
  8
0
  5
C3
  0
POLYLINE
  8
1
  6
CONTINUOUS
 62
    14
 48
0.229803
  5
C4
 66
     1
 10
0.0
 20
0.0
 30
0.0
 70
   128
  0
VERTEX
  8
1
  6
CONTINUOUS
 62
    14
 48
0.229803
  5
C5
 10
4.899919
 20
6.31079
 30
0.0
 40
0.0
 41
0.0
  0
VERTEX
  8
1
  6
CONTINUOUS
 62
    14
 48
0.229803
  5
C6
 10
5.109919
 20
6.520789
 30
0.0
 40
0.0
 41
0.0
  0
SEQEND
  8
0
  5
C7
  0
POLYLINE
  8
1
  6
CONTINUOUS
 62
    14
 48
0.229803
  5
C8
 66
     1
 10
0.0
 20
0.0
 30
0.0
 70
   128
  0
VERTEX
  8
1
  6
CONTINUOUS
 62
    14
 48
0.229803
  5
C9
 10
5.109919
 20
6.520789
 30
0.0
 40
0.0
 41
0.0
  0
VERTEX
  8
1
  6
CONTINUOUS
 62
    14
 48
0.229803
  5
CA
 10
5.239919
 20
6.520789
 30
0.0
 40
0.0
 41
0.0
  0
SEQEND
  8
0
  5
CB
  0
POLYLINE
  8
1
  6
CONTINUOUS
 62
    14
 48
0.229803
  5
CC
 66
     1
 10
0.0
 20
0.0
 30
0.0
 70
   128
  0
VERTEX
  8
1
  6
CONTINUOUS
 62
    14
 48
0.229803
  5
CD
 10
5.239919
 20
6.520789
 30
0.0
 40
0.0
 41
0.0
  0
VERTEX
  8
1
  6
CONTINUOUS
 62
    14
 48
0.229803
  5
CE
 10
5.449919
 20
6.31079
 30
0.0
 40
0.0
 41
0.0
  0
SEQEND
  8
0
  5
CF
  0
POLYLINE
  8
1
  6
CONTINUOUS
 62
   250
 48
0.229803
  5
D0
 66
     1
 10
0.0
 20
0.0
 30
0.0
 70
   128
  0
VERTEX
  8
1
  6
CONTINUOUS
 62
   250
 48
0.229803
  5
D1
 10
5.449919
 20
6.31079
 30
0.0
 40
0.0
 41
0.0
  0
VERTEX
  8
1
  6
CONTINUOUS
 62
   250
 48
0.229803
  5
D2
 10
5.449919
 20
6.31079
 30
0.0
 40
0.0
 41
0.0
  0
SEQEND
  8
0
  5
D3
  0
POLYLINE
  8
1
  6
CONTINUOUS
 62
   250
 48
0.229803
  5
D4
 66
     1
 10
0.0
 20
0.0
 30
0.0
 70
   128
  0
VERTEX
  8
1
  6
CONTINUOUS
 62
   250
 48
0.229803
  5
D5
 10
7.29992
 20
6.31079
 30
0.0
 40
0.0
 41
0.0
  0
VERTEX
  8
1
  6
CONTINUOUS
 62
   250
 48
0.229803
  5
D6
 10
7.29992
 20
6.31079
 30
0.0
 40
0.0
 41
0.0
  0
SEQEND
  8
0
  5
D7
  0
POLYLINE
  8
1
  6
CONTINUOUS
 62
   174
 48
0.229803
  5
D8
 66
     1
 10
0.0
 20
0.0
 30
0.0
 70
   128
  0
VERTEX
  8
1
  6
CONTINUOUS
 62
   174
 48
0.229803
  5
D9
 10
7.29992
 20
6.31079
 30
0.0
 40
0.0
 41
0.0
  0
VERTEX
  8
1
  6
CONTINUOUS
 62
   174
 48
0.229803
  5
DA
 10
7.29992
 20
6.93579
 30
0.0
 40
0.0
 41
0.0
  0
VERTEX
  8
1
  6
CONTINUOUS
 62
   174
 48
0.229803
  5
DB
 10
4.774919
 20
6.93579
 30
0.0
 40
0.0
 41
0.0
  0
VERTEX
  8
1
  6
CONTINUOUS
 62
   174
 48
0.229803
  5
DC
 10
4.774919
 20
6.31079
 30
0.0
 40
0.0
 41
0.0
  0
SEQEND
  8
0
  5
DD
  0
POLYLINE
  8
1
  6
CONTINUOUS
 62
   174
 48
0.229803
  5
DE
 66
     1
 10
0.0
 20
0.0
 30
0.0
 70
   128
  0
VERTEX
  8
1
  6
CONTINUOUS
 62
   174
 48
0.229803
  5
DF
 10
7.29992
 20
6.31079
 30
0.0
 40
0.0
 41
0.0
  0
VERTEX
  8
1
  6
CONTINUOUS
 62
   174
 48
0.229803
  5
E0
 10
5.94992
 20
6.31079
 30
0.0
 40
0.0
 41
0.0
  0
SEQEND
  8
0
  5
E1
  0
POLYLINE
  8
1
  6
CONTINUOUS
 62
   250
 48
0.229803
  5
E2
 66
     1
 10
0.0
 20
0.0
 30
0.0
 70
   128
  0
VERTEX
  8
1
  6
CONTINUOUS
 62
   250
 48
0.229803
  5
E3
 10
4.134919
 20
6.31079
 30
0.0
 40
0.0
 41
0.0
  0
VERTEX
  8
1
  6
CONTINUOUS
 62
   250
 48
0.229803
  5
E4
 10
4.134919
 20
6.31079
 30
0.0
 40
0.0
 41
0.0
  0
SEQEND
  8
0
  5
E5
  0
POLYLINE
  8
1
  6
CONTINUOUS
 62
    14
 48
0.229803
  5
E6
 66
     1
 10
0.0
 20
0.0
 30
0.0
 70
   128
  0
VERTEX
  8
1
  6
CONTINUOUS
 62
    14
 48
0.229803
  5
E7
 10
4.899919
 20
6.31079
 30
0.0
 40
0.0
 41
0.0
  0
VERTEX
  8
1
  6
CONTINUOUS
 62
    14
 48
0.229803
  5
E8
 10
4.134919
 20
6.31079
 30
0.0
 40
0.0
 41
0.0
  0
SEQEND
  8
0
  5
E9
  0
POLYLINE
  8
1
  6
CONTINUOUS
 62
    14
 48
0.229803
  5
EA
 66
     1
 10
0.0
 20
0.0
 30
0.0
 70
   128
  0
VERTEX
  8
1
  6
CONTINUOUS
 62
    14
 48
0.229803
  5
EB
 10
5.449919
 20
6.31079
 30
0.0
 40
0.0
 41
0.0
  0
VERTEX
  8
1
  6
CONTINUOUS
 62
    14
 48
0.229803
  5
EC
 10
5.449919
 20
5.960789
 30
0.0
 40
0.0
 41
0.0
  0
SEQEND
  8
0
  5
ED
  0
POLYLINE
  8
1
  6
CONTINUOUS
 62
    14
 48
0.229803
  5
EE
 66
     1
 10
0.0
 20
0.0
 30
0.0
 70
   128
  0
VERTEX
  8
1
  6
CONTINUOUS
 62
    14
 48
0.229803
  5
EF
 10
5.449919
 20
5.960789
 30
0.0
 40
0.0
 41
0.0
  0
VERTEX
  8
1
  6
CONTINUOUS
 62
    14
 48
0.229803
  5
F0
 10
4.774919
 20
5.960789
 30
0.0
 40
0.0
 41
0.0
  0
SEQEND
  8
0
  5
F1
  0
POLYLINE
  8
1
  6
CONTINUOUS
 62
    14
 48
0.229803
  5
F2
 66
     1
 10
0.0
 20
0.0
 30
0.0
 70
   128
  0
VERTEX
  8
1
  6
CONTINUOUS
 62
    14
 48
0.229803
  5
F3
 10
4.774919
 20
5.960789
 30
0.0
 40
0.0
 41
0.0
  0
VERTEX
  8
1
  6
CONTINUOUS
 62
    14
 48
0.229803
  5
F4
 10
4.774919
 20
5.460789
 30
0.0
 40
0.0
 41
0.0
  0
SEQEND
  8
0
  5
F5
  0
POLYLINE
  8
1
  6
CONTINUOUS
 62
   250
 48
0.229803
  5
F6
 66
     1
 10
0.0
 20
0.0
 30
0.0
 70
   128
  0
VERTEX
  8
1
  6
CONTINUOUS
 62
   250
 48
0.229803
  5
F7
 10
5.139919
 20
5.960789
 30
0.0
 40
0.0
 41
0.0
  0
VERTEX
  8
1
  6
CONTINUOUS
 62
   250
 48
0.229803
  5
F8
 10
5.139919
 20
5.460789
 30
0.0
 40
0.0
 41
0.0
  0
SEQEND
  8
0
  5
F9
  0
POLYLINE
  8
1
  6
CONTINUOUS
 62
    14
 48
0.229803
  5
FA
 66
     1
 10
0.0
 20
0.0
 30
0.0
 70
   128
  0
VERTEX
  8
1
  6
CONTINUOUS
 62
    14
 48
0.229803
  5
FB
 10
4.134919
 20
6.31079
 30
0.0
 40
0.0
 41
0.0
  0
VERTEX
  8
1
  6
CONTINUOUS
 62
    14
 48
0.229803
  5
FC
 10
4.134919
 20
5.960789
 30
0.0
 40
0.0
 41
0.0
  0
SEQEND
  8
0
  5
FD
  0
POLYLINE
  8
1
  6
CONTINUOUS
 62
    14
 48
0.229803
  5
FE
 66
     1
 10
0.0
 20
0.0
 30
0.0
 70
   128
  0
VERTEX
  8
1
  6
CONTINUOUS
 62
    14
 48
0.229803
  5
FF
 10
3.184919
 20
6.31079
 30
0.0
 40
0.0
 41
0.0
  0
VERTEX
  8
1
  6
CONTINUOUS
 62
    14
 48
0.229803
  5
100
 10
3.184919
 20
5.960789
 30
0.0
 40
0.0
 41
0.0
  0
SEQEND
  8
0
  5
101
  0
POLYLINE
  8
1
  6
CONTINUOUS
 62
    14
 48
0.229803
  5
102
 66
     1
 10
0.0
 20
0.0
 30
0.0
 70
   128
  0
VERTEX
  8
1
  6
CONTINUOUS
 62
    14
 48
0.229803
  5
103
 10
2.184919
 20
6.31079
 30
0.0
 40
0.0
 41
0.0
  0
VERTEX
  8
1
  6
CONTINUOUS
 62
    14
 48
0.229803
  5
104
 10
2.184919
 20
5.960789
 30
0.0
 40
0.0
 41
0.0
  0
SEQEND
  8
0
  5
105
  0
POLYLINE
  8
1
  6
CONTINUOUS
 62
   174
 48
0.229803
  5
106
 66
     1
 10
0.0
 20
0.0
 30
0.0
 70
   128
  0
VERTEX
  8
1
  6
CONTINUOUS
 62
   174
 48
0.229803
  5
107
 10
5.94992
 20
6.31079
 30
0.0
 40
0.0
 41
0.0
  0
VERTEX
  8
1
  6
CONTINUOUS
 62
   174
 48
0.229803
  5
108
 10
5.94992
 20
5.960789
 30
0.0
 40
0.0
 41
0.0
  0
VERTEX
  8
1
  6
CONTINUOUS
 62
   174
 48
0.229803
  5
109
 10
5.449919
 20
5.960789
 30
0.0
 40
0.0
 41
0.0
  0
SEQEND
  8
0
  5
10A
  0
POLYLINE
  8
1
  6
CONTINUOUS
 62
   250
 48
0.229803
  5
10B
 66
     1
 10
0.0
 20
0.0
 30
0.0
 70
   128
  0
VERTEX
  8
1
  6
CONTINUOUS
 62
   250
 48
0.229803
  5
10C
 10
4.774919
 20
6.31079
 30
0.0
 40
0.0
 41
0.0
  0
VERTEX
  8
1
  6
CONTINUOUS
 62
   250
 48
0.229803
  5
10D
 10
4.774919
 20
6.93579
 30
0.0
 40
0.0
 41
0.0
  0
VERTEX
  8
1
  6
CONTINUOUS
 62
   250
 48
0.229803
  5
10E
 10
6.274919
 20
6.93579
 30
0.0
 40
0.0
 41
0.0
  0
VERTEX
  8
1
  6
CONTINUOUS
 62
   250
 48
0.229803
  5
10F
 10
6.274919
 20
5.93579
 30
0.0
 40
0.0
 41
0.0
  0
SEQEND
  8
0
  5
110
  0
POLYLINE
  8
1
  6
CONTINUOUS
 62
   250
 48
0.229803
  5
111
 66
     1
 10
0.0
 20
0.0
 30
0.0
 70
   128
  0
VERTEX
  8
1
  6
CONTINUOUS
 62
   250
 48
0.229803
  5
112
 10
6.274919
 20
5.93579
 30
0.0
 40
0.0
 41
0.0
  0
VERTEX
  8
1
  6
CONTINUOUS
 62
   250
 48
0.229803
  5
113
 10
5.974919
 20
5.93579
 30
0.0
 40
0.0
 41
0.0
  0
VERTEX
  8
1
  6
CONTINUOUS
 62
   250
 48
0.229803
  5
114
 10
5.974919
 20
6.31079
 30
0.0
 40
0.0
 41
0.0
  0
SEQEND
  8
0
  5
115
  0
POLYLINE
  8
1
  6
CONTINUOUS
 62
   250
 48
0.229803
  5
116
 66
     1
 10
0.0
 20
0.0
 30
0.0
 70
   128
  0
VERTEX
  8
1
  6
CONTINUOUS
 62
   250
 48
0.229803
  5
117
 10
5.449919
 20
6.31079
 30
0.0
 40
0.0
 41
0.0
  0
VERTEX
  8
1
  6
CONTINUOUS
 62
   250
 48
0.229803
  5
118
 10
5.174919
 20
6.585789
 30
0.0
 40
0.0
 41
0.0
  0
SEQEND
  8
0
  5
119
  0
POLYLINE
  8
1
  6
CONTINUOUS
 62
   250
 48
0.229803
  5
11A
 66
     1
 10
0.0
 20
0.0
 30
0.0
 70
   128
  0
VERTEX
  8
1
  6
CONTINUOUS
 62
   250
 48
0.229803
  5
11B
 10
5.174919
 20
6.585789
 30
0.0
 40
0.0
 41
0.0
  0
VERTEX
  8
1
  6
CONTINUOUS
 62
   250
 48
0.229803
  5
11C
 10
4.899919
 20
6.31079
 30
0.0
 40
0.0
 41
0.0
  0
SEQEND
  8
0
  5
11D
  0
POLYLINE
  8
1
  6
CONTINUOUS
 62
   250
 48
0.229803
  5
11E
 66
     1
 10
0.0
 20
0.0
 30
0.0
 70
   128
  0
VERTEX
  8
1
  6
CONTINUOUS
 62
   250
 48
0.229803
  5
11F
 10
5.449919
 20
6.31079
 30
0.0
 40
0.0
 41
0.0
  0
VERTEX
  8
1
  6
CONTINUOUS
 62
   250
 48
0.229803
  5
120
 10
5.974919
 20
6.31079
 30
0.0
 40
0.0
 41
0.0
  0
SEQEND
  8
0
  5
121
  0
POLYLINE
  8
1
  6
CONTINUOUS
 62
   250
 48
0.229803
  5
122
 66
     1
 10
0.0
 20
0.0
 30
0.0
 70
   128
  0
VERTEX
  8
1
  6
CONTINUOUS
 62
   250
 48
0.229803
  5
123
 10
4.899919
 20
6.31079
 30
0.0
 40
0.0
 41
0.0
  0
VERTEX
  8
1
  6
CONTINUOUS
 62
   250
 48
0.229803
  5
124
 10
4.774919
 20
6.31079
 30
0.0
 40
0.0
 41
0.0
  0
SEQEND
  8
0
  5
125
  0
POLYLINE
  8
1
  6
CONTINUOUS
 62
   250
 48
0.229803
  5
126
 66
     1
 10
0.0
 20
0.0
 30
0.0
 70
   128
  0
VERTEX
  8
1
  6
CONTINUOUS
 62
   250
 48
0.229803
  5
127
 10
6.449919
 20
7.64079
 30
0.0
 40
0.0
 41
0.0
  0
VERTEX
  8
1
  6
CONTINUOUS
 62
   250
 48
0.229803
  5
128
 10
6.449919
 20
7.64079
 30
0.0
 40
0.0
 41
0.0
  0
SEQEND
  8
0
  5
129
  0
POLYLINE
  8
1
  6
CONTINUOUS
 62
   174
 48
0.125
  5
12A
 66
     1
 10
0.0
 20
0.0
 30
0.0
 70
   128
  0
VERTEX
  8
1
  6
CONTINUOUS
 62
   174
 48
0.125
  5
12B
 10
5.388919
 20
7.64079
 30
0.0
 40
0.0
 41
0.0
  0
VERTEX
  8
1
  6
CONTINUOUS
 62
   174
 48
0.125
  5
12C
 10
5.388919
 20
13.015788
 30
0.0
 40
0.0
 41
0.0
  0
VERTEX
  8
1
  6
CONTINUOUS
 62
   174
 48
0.125
  5
12D
 10
7.509919
 20
13.01579
 30
0.0
 40
0.0
 41
0.0
  0
VERTEX
  8
1
  6
CONTINUOUS
 62
   174
 48
0.125
  5
12E
 10
7.509919
 20
7.64079
 30
0.0
 40
0.0
 41
0.0
  0
SEQEND
  8
0
  5
12F
  0
POLYLINE
  8
1
  6
CONTINUOUS
 62
   174
 48
0.125
  5
130
 66
     1
 10
0.0
 20
0.0
 30
0.0
 70
   128
  0
VERTEX
  8
1
  6
CONTINUOUS
 62
   174
 48
0.125
  5
131
 10
6.449919
 20
7.64079
 30
0.0
 40
0.0
 41
0.0
  0
VERTEX
  8
1
  6
CONTINUOUS
 62
   174
 48
0.125
  5
132
 10
6.449919
 20
13.01579
 30
0.0
 40
0.0
 41
0.0
  0
SEQEND
  8
0
  5
133
  0
POLYLINE
  8
1
  6
CONTINUOUS
 62
    54
 48
0.229803
  5
134
 66
     1
 10
0.0
 20
0.0
 30
0.0
 70
   128
  0
VERTEX
  8
1
  6
CONTINUOUS
 62
    54
 48
0.229803
  5
135
 10
6.449919
 20
11.45329
 30
0.0
 40
0.0
 41
0.0
  0
VERTEX
  8
1
  6
CONTINUOUS
 62
    54
 48
0.229803
  5
136
 10
5.574919
 20
11.45329
 30
0.0
 40
0.0
 41
0.0
  0
SEQEND
  8
0
  5
137
  0
POLYLINE
  8
1
  6
CONTINUOUS
 62
    54
 48
0.229803
  5
138
 66
     1
 10
0.0
 20
0.0
 30
0.0
 70
   128
  0
VERTEX
  8
1
  6
CONTINUOUS
 62
    54
 48
0.229803
  5
139
 10
6.449919
 20
9.20329
 30
0.0
 40
0.0
 41
0.0
  0
VERTEX
  8
1
  6
CONTINUOUS
 62
    54
 48
0.229803
  5
13A
 10
5.574919
 20
9.20329
 30
0.0
 40
0.0
 41
0.0
  0
VERTEX
  8
1
  6
CONTINUOUS
 62
    54
 48
0.229803
  5
13B
 10
5.574919
 20
11.45329
 30
0.0
 40
0.0
 41
0.0
  0
SEQEND
  8
0
  5
13C
  0
POLYLINE
  8
1
  6
CONTINUOUS
 62
   250
 48
0.229803
  5
13D
 66
     1
 10
0.0
 20
0.0
 30
0.0
 70
   128
  0
VERTEX
  8
1
  6
CONTINUOUS
 62
   250
 48
0.229803
  5
13E
 10
6.449919
 20
12.32829
 30
0.0
 40
0.0
 41
0.0
  0
VERTEX
  8
1
  6
CONTINUOUS
 62
   250
 48
0.229803
  5
13F
 10
6.449919
 20
12.32829
 30
0.0
 40
0.0
 41
0.0
  0
SEQEND
  8
0
  5
140
  0
POLYLINE
  8
1
  6
CONTINUOUS
 62
    54
 48
0.229803
  5
141
 66
     1
 10
0.0
 20
0.0
 30
0.0
 70
   128
  0
VERTEX
  8
1
  6
CONTINUOUS
 62
    54
 48
0.229803
  5
142
 10
4.824919
 20
8.32829
 30
0.0
 40
0.0
 41
0.0
  0
VERTEX
  8
1
  6
CONTINUOUS
 62
    54
 48
0.229803
  5
143
 10
5.074919
 20
8.32829
 30
0.0
 40
0.0
 41
0.0
  0
SEQEND
  8
0
  5
144
  0
POLYLINE
  8
1
  6
CONTINUOUS
 62
    54
 48
0.229803
  5
145
 66
     1
 10
0.0
 20
0.0
 30
0.0
 70
   128
  0
VERTEX
  8
1
  6
CONTINUOUS
 62
    54
 48
0.229803
  5
146
 10
4.824919
 20
12.32829
 30
0.0
 40
0.0
 41
0.0
  0
VERTEX
  8
1
  6
CONTINUOUS
 62
    54
 48
0.229803
  5
147
 10
5.074919
 20
12.32829
 30
0.0
 40
0.0
 41
0.0
  0
SEQEND
  8
0
  5
148
  0
POLYLINE
  8
1
  6
CONTINUOUS
 62
    54
 48
0.229803
  5
149
 66
     1
 10
0.0
 20
0.0
 30
0.0
 70
   128
  0
VERTEX
  8
1
  6
CONTINUOUS
 62
    54
 48
0.229803
  5
14A
 10
5.074919
 20
12.32829
 30
0.0
 40
0.0
 41
0.0
  0
VERTEX
  8
1
  6
CONTINUOUS
 62
    54
 48
0.229803
  5
14B
 10
5.574919
 20
11.45329
 30
0.0
 40
0.0
 41
0.0
  0
SEQEND
  8
0
  5
14C
  0
POLYLINE
  8
1
  6
CONTINUOUS
 62
    54
 48
0.229803
  5
14D
 66
     1
 10
0.0
 20
0.0
 30
0.0
 70
   128
  0
VERTEX
  8
1
  6
CONTINUOUS
 62
    54
 48
0.229803
  5
14E
 10
5.074919
 20
8.32829
 30
0.0
 40
0.0
 41
0.0
  0
VERTEX
  8
1
  6
CONTINUOUS
 62
    54
 48
0.229803
  5
14F
 10
5.574919
 20
9.20329
 30
0.0
 40
0.0
 41
0.0
  0
SEQEND
  8
0
  5
150
  0
POLYLINE
  8
1
  6
CONTINUOUS
 62
   250
 48
0.229803
  5
151
 66
     1
 10
0.0
 20
0.0
 30
0.0
 70
   128
  0
VERTEX
  8
1
  6
CONTINUOUS
 62
   250
 48
0.229803
  5
152
 10
5.324919
 20
10.32829
 30
0.0
 40
0.0
 41
0.0
  0
VERTEX
  8
1
  6
CONTINUOUS
 62
   250
 48
0.229803
  5
153
 10
5.324919
 20
10.32829
 30
0.0
 40
0.0
 41
0.0
  0
SEQEND
  8
0
  5
154
  0
POLYLINE
  8
1
  6
CONTINUOUS
 62
    54
 48
0.229803
  5
155
 66
     1
 10
0.0
 20
0.0
 30
0.0
 70
   128
  0
VERTEX
  8
1
  6
CONTINUOUS
 62
    54
 48
0.229803
  5
156
 10
5.324919
 20
8.76579
 30
0.0
 40
0.0
 41
0.0
  0
VERTEX
  8
1
  6
CONTINUOUS
 62
    54
 48
0.229803
  5
157
 10
5.324919
 20
11.89079
 30
0.0
 40
0.0
 41
0.0
  0
SEQEND
  8
0
  5
158
  0
POLYLINE
  8
1
  6
CONTINUOUS
 62
    54
 48
0.229803
  5
159
 66
     1
 10
0.0
 20
0.0
 30
0.0
 70
   128
  0
VERTEX
  8
1
  6
CONTINUOUS
 62
    54
 48
0.229803
  5
15A
 10
4.824919
 20
10.48449
 30
0.0
 40
0.0
 41
0.0
  0
VERTEX
  8
1
  6
CONTINUOUS
 62
    54
 48
0.229803
  5
15B
 10
4.981119
 20
10.48449
 30
0.0
 40
0.0
 41
0.0
  0
SEQEND
  8
0
  5
15C
  0
POLYLINE
  8
1
  6
CONTINUOUS
 62
    54
 48
0.229803
  5
15D
 66
     1
 10
0.0
 20
0.0
 30
0.0
 70
   128
  0
VERTEX
  8
1
  6
CONTINUOUS
 62
    54
 48
0.229803
  5
15E
 10
4.824919
 20
10.17209
 30
0.0
 40
0.0
 41
0.0
  0
VERTEX
  8
1
  6
CONTINUOUS
 62
    54
 48
0.229803
  5
15F
 10
4.981119
 20
10.17209
 30
0.0
 40
0.0
 41
0.0
  0
SEQEND
  8
0
  5
160
  0
POLYLINE
  8
1
  6
CONTINUOUS
 62
    54
 48
0.229803
  5
161
 66
     1
 10
0.0
 20
0.0
 30
0.0
 70
   128
  0
VERTEX
  8
1
  6
CONTINUOUS
 62
    54
 48
0.229803
  5
162
 10
4.981119
 20
10.57829
 30
0.0
 40
0.0
 41
0.0
  0
VERTEX
  8
1
  6
CONTINUOUS
 62
    54
 48
0.229803
  5
163
 10
5.137319
 20
10.57829
 30
0.0
 40
0.0
 41
0.0
  0
SEQEND
  8
0
  5
164
  0
POLYLINE
  8
1
  6
CONTINUOUS
 62
    54
 48
0.229803
  5
165
 66
     1
 10
0.0
 20
0.0
 30
0.0
 70
   128
  0
VERTEX
  8
1
  6
CONTINUOUS
 62
    54
 48
0.229803
  5
166
 10
4.981119
 20
10.07829
 30
0.0
 40
0.0
 41
0.0
  0
VERTEX
  8
1
  6
CONTINUOUS
 62
    54
 48
0.229803
  5
167
 10
5.137319
 20
10.07829
 30
0.0
 40
0.0
 41
0.0
  0
SEQEND
  8
0
  5
168
  0
POLYLINE
  8
1
  6
CONTINUOUS
 62
    54
 48
0.229803
  5
169
 66
     1
 10
0.0
 20
0.0
 30
0.0
 70
   128
  0
VERTEX
  8
1
  6
CONTINUOUS
 62
    54
 48
0.229803
  5
16A
 10
4.981119
 20
10.17209
 30
0.0
 40
0.0
 41
0.0
  0
VERTEX
  8
1
  6
CONTINUOUS
 62
    54
 48
0.229803
  5
16B
 10
4.981119
 20
10.07829
 30
0.0
 40
0.0
 41
0.0
  0
SEQEND
  8
0
  5
16C
  0
POLYLINE
  8
1
  6
CONTINUOUS
 62
    54
 48
0.229803
  5
16D
 66
     1
 10
0.0
 20
0.0
 30
0.0
 70
   128
  0
VERTEX
  8
1
  6
CONTINUOUS
 62
    54
 48
0.229803
  5
16E
 10
4.981119
 20
10.48449
 30
0.0
 40
0.0
 41
0.0
  0
VERTEX
  8
1
  6
CONTINUOUS
 62
    54
 48
0.229803
  5
16F
 10
4.981119
 20
10.57829
 30
0.0
 40
0.0
 41
0.0
  0
SEQEND
  8
0
  5
170
  0
POLYLINE
  8
1
  6
CONTINUOUS
 62
    54
 48
0.229803
  5
171
 66
     1
 10
0.0
 20
0.0
 30
0.0
 70
   128
  0
VERTEX
  8
1
  6
CONTINUOUS
 62
    54
 48
0.229803
  5
172
 10
5.137319
 20
10.57829
 30
0.0
 40
0.0
 41
0.0
  0
VERTEX
  8
1
  6
CONTINUOUS
 62
    54
 48
0.229803
  5
173
 10
5.137319
 20
10.07829
 30
0.0
 40
0.0
 41
0.0
  0
SEQEND
  8
0
  5
174
  0
POLYLINE
  8
1
  6
CONTINUOUS
 62
    54
 48
0.229803
  5
175
 66
     1
 10
0.0
 20
0.0
 30
0.0
 70
   128
  0
VERTEX
  8
1
  6
CONTINUOUS
 62
    54
 48
0.229803
  5
176
 10
5.137319
 20
11.89079
 30
0.0
 40
0.0
 41
0.0
  0
VERTEX
  8
1
  6
CONTINUOUS
 62
    54
 48
0.229803
  5
177
 10
5.137319
 20
11.39079
 30
0.0
 40
0.0
 41
0.0
  0
SEQEND
  8
0
  5
178
  0
POLYLINE
  8
1
  6
CONTINUOUS
 62
    54
 48
0.229803
  5
179
 66
     1
 10
0.0
 20
0.0
 30
0.0
 70
   128
  0
VERTEX
  8
1
  6
CONTINUOUS
 62
    54
 48
0.229803
  5
17A
 10
5.137319
 20
8.76579
 30
0.0
 40
0.0
 41
0.0
  0
VERTEX
  8
1
  6
CONTINUOUS
 62
    54
 48
0.229803
  5
17B
 10
5.137319
 20
9.26579
 30
0.0
 40
0.0
 41
0.0
  0
SEQEND
  8
0
  5
17C
  0
POLYLINE
  8
1
  6
CONTINUOUS
 62
    54
 48
0.229803
  5
17D
 66
     1
 10
0.0
 20
0.0
 30
0.0
 70
   128
  0
VERTEX
  8
1
  6
CONTINUOUS
 62
    54
 48
0.229803
  5
17E
 10
5.137319
 20
8.76579
 30
0.0
 40
0.0
 41
0.0
  0
VERTEX
  8
1
  6
CONTINUOUS
 62
    54
 48
0.229803
  5
17F
 10
4.981119
 20
8.76579
 30
0.0
 40
0.0
 41
0.0
  0
SEQEND
  8
0
  5
180
  0
POLYLINE
  8
1
  6
CONTINUOUS
 62
    54
 48
0.229803
  5
181
 66
     1
 10
0.0
 20
0.0
 30
0.0
 70
   128
  0
VERTEX
  8
1
  6
CONTINUOUS
 62
    54
 48
0.229803
  5
182
 10
5.137319
 20
9.26579
 30
0.0
 40
0.0
 41
0.0
  0
VERTEX
  8
1
  6
CONTINUOUS
 62
    54
 48
0.229803
  5
183
 10
4.981119
 20
9.26579
 30
0.0
 40
0.0
 41
0.0
  0
SEQEND
  8
0
  5
184
  0
POLYLINE
  8
1
  6
CONTINUOUS
 62
    54
 48
0.229803
  5
185
 66
     1
 10
0.0
 20
0.0
 30
0.0
 70
   128
  0
VERTEX
  8
1
  6
CONTINUOUS
 62
    54
 48
0.229803
  5
186
 10
5.137319
 20
11.39079
 30
0.0
 40
0.0
 41
0.0
  0
VERTEX
  8
1
  6
CONTINUOUS
 62
    54
 48
0.229803
  5
187
 10
4.981119
 20
11.39079
 30
0.0
 40
0.0
 41
0.0
  0
SEQEND
  8
0
  5
188
  0
POLYLINE
  8
1
  6
CONTINUOUS
 62
    54
 48
0.229803
  5
189
 66
     1
 10
0.0
 20
0.0
 30
0.0
 70
   128
  0
VERTEX
  8
1
  6
CONTINUOUS
 62
    54
 48
0.229803
  5
18A
 10
5.137319
 20
11.89079
 30
0.0
 40
0.0
 41
0.0
  0
VERTEX
  8
1
  6
CONTINUOUS
 62
    54
 48
0.229803
  5
18B
 10
4.981119
 20
11.89079
 30
0.0
 40
0.0
 41
0.0
  0
SEQEND
  8
0
  5
18C
  0
POLYLINE
  8
1
  6
CONTINUOUS
 62
    54
 48
0.229803
  5
18D
 66
     1
 10
0.0
 20
0.0
 30
0.0
 70
   128
  0
VERTEX
  8
1
  6
CONTINUOUS
 62
    54
 48
0.229803
  5
18E
 10
4.824919
 20
11.79699
 30
0.0
 40
0.0
 41
0.0
  0
VERTEX
  8
1
  6
CONTINUOUS
 62
    54
 48
0.229803
  5
18F
 10
4.981119
 20
11.79699
 30
0.0
 40
0.0
 41
0.0
  0
SEQEND
  8
0
  5
190
  0
POLYLINE
  8
1
  6
CONTINUOUS
 62
    54
 48
0.229803
  5
191
 66
     1
 10
0.0
 20
0.0
 30
0.0
 70
   128
  0
VERTEX
  8
1
  6
CONTINUOUS
 62
    54
 48
0.229803
  5
192
 10
4.824919
 20
11.48459
 30
0.0
 40
0.0
 41
0.0
  0
VERTEX
  8
1
  6
CONTINUOUS
 62
    54
 48
0.229803
  5
193
 10
4.981119
 20
11.48459
 30
0.0
 40
0.0
 41
0.0
  0
SEQEND
  8
0
  5
194
  0
POLYLINE
  8
1
  6
CONTINUOUS
 62
    54
 48
0.229803
  5
195
 66
     1
 10
0.0
 20
0.0
 30
0.0
 70
   128
  0
VERTEX
  8
1
  6
CONTINUOUS
 62
    54
 48
0.229803
  5
196
 10
4.824919
 20
9.17199
 30
0.0
 40
0.0
 41
0.0
  0
VERTEX
  8
1
  6
CONTINUOUS
 62
    54
 48
0.229803
  5
197
 10
4.981119
 20
9.17199
 30
0.0
 40
0.0
 41
0.0
  0
SEQEND
  8
0
  5
198
  0
POLYLINE
  8
1
  6
CONTINUOUS
 62
    54
 48
0.229803
  5
199
 66
     1
 10
0.0
 20
0.0
 30
0.0
 70
   128
  0
VERTEX
  8
1
  6
CONTINUOUS
 62
    54
 48
0.229803
  5
19A
 10
4.824919
 20
8.85959
 30
0.0
 40
0.0
 41
0.0
  0
VERTEX
  8
1
  6
CONTINUOUS
 62
    54
 48
0.229803
  5
19B
 10
4.981119
 20
8.85959
 30
0.0
 40
0.0
 41
0.0
  0
SEQEND
  8
0
  5
19C
  0
POLYLINE
  8
1
  6
CONTINUOUS
 62
    54
 48
0.229803
  5
19D
 66
     1
 10
0.0
 20
0.0
 30
0.0
 70
   128
  0
VERTEX
  8
1
  6
CONTINUOUS
 62
    54
 48
0.229803
  5
19E
 10
4.981119
 20
9.17199
 30
0.0
 40
0.0
 41
0.0
  0
VERTEX
  8
1
  6
CONTINUOUS
 62
    54
 48
0.229803
  5
19F
 10
4.981119
 20
9.26579
 30
0.0
 40
0.0
 41
0.0
  0
SEQEND
  8
0
  5
1A0
  0
POLYLINE
  8
1
  6
CONTINUOUS
 62
    54
 48
0.229803
  5
1A1
 66
     1
 10
0.0
 20
0.0
 30
0.0
 70
   128
  0
VERTEX
  8
1
  6
CONTINUOUS
 62
    54
 48
0.229803
  5
1A2
 10
4.981119
 20
8.85959
 30
0.0
 40
0.0
 41
0.0
  0
VERTEX
  8
1
  6
CONTINUOUS
 62
    54
 48
0.229803
  5
1A3
 10
4.981119
 20
8.76579
 30
0.0
 40
0.0
 41
0.0
  0
SEQEND
  8
0
  5
1A4
  0
POLYLINE
  8
1
  6
CONTINUOUS
 62
    54
 48
0.229803
  5
1A5
 66
     1
 10
0.0
 20
0.0
 30
0.0
 70
   128
  0
VERTEX
  8
1
  6
CONTINUOUS
 62
    54
 48
0.229803
  5
1A6
 10
4.981119
 20
11.48459
 30
0.0
 40
0.0
 41
0.0
  0
VERTEX
  8
1
  6
CONTINUOUS
 62
    54
 48
0.229803
  5
1A7
 10
4.981119
 20
11.39079
 30
0.0
 40
0.0
 41
0.0
  0
SEQEND
  8
0
  5
1A8
  0
POLYLINE
  8
1
  6
CONTINUOUS
 62
    54
 48
0.229803
  5
1A9
 66
     1
 10
0.0
 20
0.0
 30
0.0
 70
   128
  0
VERTEX
  8
1
  6
CONTINUOUS
 62
    54
 48
0.229803
  5
1AA
 10
4.981119
 20
11.79699
 30
0.0
 40
0.0
 41
0.0
  0
VERTEX
  8
1
  6
CONTINUOUS
 62
    54
 48
0.229803
  5
1AB
 10
4.981119
 20
11.89079
 30
0.0
 40
0.0
 41
0.0
  0
SEQEND
  8
0
  5
1AC
  0
POLYLINE
  8
1
  6
CONTINUOUS
 62
   250
 48
0.229803
  5
1AD
 66
     1
 10
0.0
 20
0.0
 30
0.0
 70
   128
  0
VERTEX
  8
1
  6
CONTINUOUS
 62
   250
 48
0.229803
  5
1AE
 10
13.134918
 20
10.32829
 30
0.0
 40
0.0
 41
0.0
  0
VERTEX
  8
1
  6
CONTINUOUS
 62
   250
 48
0.229803
  5
1AF
 10
13.134918
 20
10.32829
 30
0.0
 40
0.0
 41
0.0
  0
SEQEND
  8
0
  5
1B0
  0
POLYLINE
  8
1
  6
CONTINUOUS
 62
   174
 48
0.125
  5
1B1
 66
     1
 10
0.0
 20
0.0
 30
0.0
 70
   128
  0
VERTEX
  8
1
  6
CONTINUOUS
 62
   174
 48
0.125
  5
1B2
 10
13.134918
 20
11.389291
 30
0.0
 40
0.0
 41
0.0
  0
VERTEX
  8
1
  6
CONTINUOUS
 62
   174
 48
0.125
  5
1B3
 10
12.073919
 20
10.32829
 30
0.0
 40
0.0
 41
0.0
  0
VERTEX
  8
1
  6
CONTINUOUS
 62
   174
 48
0.125
  5
1B4
 10
13.134918
 20
9.26829
 30
0.0
 40
0.0
 41
0.0
  0
VERTEX
  8
1
  6
CONTINUOUS
 62
   174
 48
0.125
  5
1B5
 10
14.194918
 20
10.32829
 30
0.0
 40
0.0
 41
0.0
  0
VERTEX
  8
1
  6
CONTINUOUS
 62
   174
 48
0.125
  5
1B6
 10
13.134918
 20
11.389291
 30
0.0
 40
0.0
 41
0.0
  0
SEQEND
  8
0
  5
1B7
  0
POLYLINE
  8
1
  6
CONTINUOUS
 62
    54
 48
0.229803
  5
1B8
 66
     1
 10
0.0
 20
0.0
 30
0.0
 70
   128
  0
VERTEX
  8
1
  6
CONTINUOUS
 62
    54
 48
0.229803
  5
1B9
 10
13.134918
 20
11.95329
 30
0.0
 40
0.0
 41
0.0
  0
VERTEX
  8
1
  6
CONTINUOUS
 62
    54
 48
0.229803
  5
1BA
 10
12.259918
 20
11.95329
 30
0.0
 40
0.0
 41
0.0
  0
SEQEND
  8
0
  5
1BB
  0
POLYLINE
  8
1
  6
CONTINUOUS
 62
    54
 48
0.229803
  5
1BC
 66
     1
 10
0.0
 20
0.0
 30
0.0
 70
   128
  0
VERTEX
  8
1
  6
CONTINUOUS
 62
    54
 48
0.229803
  5
1BD
 10
13.134918
 20
8.70329
 30
0.0
 40
0.0
 41
0.0
  0
VERTEX
  8
1
  6
CONTINUOUS
 62
    54
 48
0.229803
  5
1BE
 10
12.259918
 20
8.70329
 30
0.0
 40
0.0
 41
0.0
  0
SEQEND
  8
0
  5
1BF
  0
POLYLINE
  8
1
  6
CONTINUOUS
 62
    54
 48
0.229803
  5
1C0
 66
     1
 10
0.0
 20
0.0
 30
0.0
 70
   128
  0
VERTEX
  8
1
  6
CONTINUOUS
 62
    54
 48
0.229803
  5
1C1
 10
11.509918
 20
12.32829
 30
0.0
 40
0.0
 41
0.0
  0
VERTEX
  8
1
  6
CONTINUOUS
 62
    54
 48
0.229803
  5
1C2
 10
11.509918
 20
8.32829
 30
0.0
 40
0.0
 41
0.0
  0
SEQEND
  8
0
  5
1C3
  0
POLYLINE
  8
1
  6
CONTINUOUS
 62
    54
 48
0.229803
  5
1C4
 66
     1
 10
0.0
 20
0.0
 30
0.0
 70
   128
  0
VERTEX
  8
1
  6
CONTINUOUS
 62
    54
 48
0.229803
  5
1C5
 10
11.509918
 20
8.32829
 30
0.0
 40
0.0
 41
0.0
  0
VERTEX
  8
1
  6
CONTINUOUS
 62
    54
 48
0.229803
  5
1C6
 10
12.009918
 20
8.32829
 30
0.0
 40
0.0
 41
0.0
  0
SEQEND
  8
0
  5
1C7
  0
POLYLINE
  8
1
  6
CONTINUOUS
 62
    54
 48
0.229803
  5
1C8
 66
     1
 10
0.0
 20
0.0
 30
0.0
 70
   128
  0
VERTEX
  8
1
  6
CONTINUOUS
 62
    54
 48
0.229803
  5
1C9
 10
11.509918
 20
12.32829
 30
0.0
 40
0.0
 41
0.0
  0
VERTEX
  8
1
  6
CONTINUOUS
 62
    54
 48
0.229803
  5
1CA
 10
12.009918
 20
12.32829
 30
0.0
 40
0.0
 41
0.0
  0
SEQEND
  8
0
  5
1CB
  0
POLYLINE
  8
1
  6
CONTINUOUS
 62
    54
 48
0.229803
  5
1CC
 66
     1
 10
0.0
 20
0.0
 30
0.0
 70
   128
  0
VERTEX
  8
1
  6
CONTINUOUS
 62
    54
 48
0.229803
  5
1CD
 10
12.009918
 20
12.32829
 30
0.0
 40
0.0
 41
0.0
  0
VERTEX
  8
1
  6
CONTINUOUS
 62
    54
 48
0.229803
  5
1CE
 10
12.009918
 20
8.32829
 30
0.0
 40
0.0
 41
0.0
  0
SEQEND
  8
0
  5
1CF
  0
POLYLINE
  8
1
  6
CONTINUOUS
 62
    54
 48
0.229803
  5
1D0
 66
     1
 10
0.0
 20
0.0
 30
0.0
 70
   128
  0
VERTEX
  8
1
  6
CONTINUOUS
 62
    54
 48
0.229803
  5
1D1
 10
12.259918
 20
8.70329
 30
0.0
 40
0.0
 41
0.0
  0
VERTEX
  8
1
  6
CONTINUOUS
 62
    54
 48
0.229803
  5
1D2
 10
12.009918
 20
8.32829
 30
0.0
 40
0.0
 41
0.0
  0
SEQEND
  8
0
  5
1D3
  0
POLYLINE
  8
1
  6
CONTINUOUS
 62
    54
 48
0.229803
  5
1D4
 66
     1
 10
0.0
 20
0.0
 30
0.0
 70
   128
  0
VERTEX
  8
1
  6
CONTINUOUS
 62
    54
 48
0.229803
  5
1D5
 10
12.259918
 20
11.95329
 30
0.0
 40
0.0
 41
0.0
  0
VERTEX
  8
1
  6
CONTINUOUS
 62
    54
 48
0.229803
  5
1D6
 10
12.009918
 20
12.32829
 30
0.0
 40
0.0
 41
0.0
  0
SEQEND
  8
0
  5
1D7
  0
POLYLINE
  8
1
  6
CONTINUOUS
 62
    54
 48
0.229803
  5
1D8
 66
     1
 10
0.0
 20
0.0
 30
0.0
 70
   128
  0
VERTEX
  8
1
  6
CONTINUOUS
 62
    54
 48
0.229803
  5
1D9
 10
12.259918
 20
8.70329
 30
0.0
 40
0.0
 41
0.0
  0
VERTEX
  8
1
  6
CONTINUOUS
 62
    54
 48
0.229803
  5
1DA
 10
12.259918
 20
10.142466
 30
0.0
 40
0.0
 41
0.0
  0
SEQEND
  8
0
  5
1DB
  0
POLYLINE
  8
1
  6
CONTINUOUS
 62
    54
 48
0.229803
  5
1DC
 66
     1
 10
0.0
 20
0.0
 30
0.0
 70
   128
  0
VERTEX
  8
1
  6
CONTINUOUS
 62
    54
 48
0.229803
  5
1DD
 10
12.259918
 20
11.95329
 30
0.0
 40
0.0
 41
0.0
  0
VERTEX
  8
1
  6
CONTINUOUS
 62
    54
 48
0.229803
  5
1DE
 10
12.259918
 20
10.514291
 30
0.0
 40
0.0
 41
0.0
  0
SEQEND
  8
0
  5
1DF
  0
POLYLINE
  8
1
  6
CONTINUOUS
 62
     1
 48
0.229803
  5
1E0
 66
     1
 10
0.0
 20
0.0
 30
0.0
 70
   128
  0
VERTEX
  8
1
  6
CONTINUOUS
 62
     1
 48
0.229803
  5
1E1
 10
13.134918
 20
9.26829
 30
0.0
 40
0.0
 41
0.0
  0
VERTEX
  8
1
  6
CONTINUOUS
 62
     1
 48
0.229803
  5
1E2
 10
13.134918
 20
8.70329
 30
0.0
 40
0.0
 41
0.0
  0
SEQEND
  8
0
  5
1E3
  0
POLYLINE
  8
1
  6
CONTINUOUS
 62
     1
 48
0.229803
  5
1E4
 66
     1
 10
0.0
 20
0.0
 30
0.0
 70
   128
  0
VERTEX
  8
1
  6
CONTINUOUS
 62
     1
 48
0.229803
  5
1E5
 10
13.134918
 20
11.389291
 30
0.0
 40
0.0
 41
0.0
  0
VERTEX
  8
1
  6
CONTINUOUS
 62
     1
 48
0.229803
  5
1E6
 10
13.134918
 20
11.95329
 30
0.0
 40
0.0
 41
0.0
  0
SEQEND
  8
0
  5
1E7
  0
POLYLINE
  8
1
  6
CONTINUOUS
 62
    54
 48
0.229803
  5
1E8
 66
     1
 10
0.0
 20
0.0
 30
0.0
 70
   128
  0
VERTEX
  8
1
  6
CONTINUOUS
 62
    54
 48
0.229803
  5
1E9
 10
4.824919
 20
11.79699
 30
0.0
 40
0.0
 41
0.0
  0
VERTEX
  8
1
  6
CONTINUOUS
 62
    54
 48
0.229803
  5
1EA
 10
4.824919
 20
12.32829
 30
0.0
 40
0.0
 41
0.0
  0
SEQEND
  8
0
  5
1EB
  0
POLYLINE
  8
1
  6
CONTINUOUS
 62
    54
 48
0.229803
  5
1EC
 66
     1
 10
0.0
 20
0.0
 30
0.0
 70
   128
  0
VERTEX
  8
1
  6
CONTINUOUS
 62
    54
 48
0.229803
  5
1ED
 10
4.824919
 20
11.48459
 30
0.0
 40
0.0
 41
0.0
  0
VERTEX
  8
1
  6
CONTINUOUS
 62
    54
 48
0.229803
  5
1EE
 10
4.824919
 20
10.48449
 30
0.0
 40
0.0
 41
0.0
  0
SEQEND
  8
0
  5
1EF
  0
POLYLINE
  8
1
  6
CONTINUOUS
 62
    54
 48
0.229803
  5
1F0
 66
     1
 10
0.0
 20
0.0
 30
0.0
 70
   128
  0
VERTEX
  8
1
  6
CONTINUOUS
 62
    54
 48
0.229803
  5
1F1
 10
4.824919
 20
10.17209
 30
0.0
 40
0.0
 41
0.0
  0
VERTEX
  8
1
  6
CONTINUOUS
 62
    54
 48
0.229803
  5
1F2
 10
4.824919
 20
9.17199
 30
0.0
 40
0.0
 41
0.0
  0
SEQEND
  8
0
  5
1F3
  0
POLYLINE
  8
1
  6
CONTINUOUS
 62
    54
 48
0.229803
  5
1F4
 66
     1
 10
0.0
 20
0.0
 30
0.0
 70
   128
  0
VERTEX
  8
1
  6
CONTINUOUS
 62
    54
 48
0.229803
  5
1F5
 10
4.824919
 20
8.85959
 30
0.0
 40
0.0
 41
0.0
  0
VERTEX
  8
1
  6
CONTINUOUS
 62
    54
 48
0.229803
  5
1F6
 10
4.824919
 20
8.32829
 30
0.0
 40
0.0
 41
0.0
  0
SEQEND
  8
0
  5
1F7
  0
POLYLINE
  8
1
  6
CONTINUOUS
 62
     1
 48
0.229803
  5
1F8
 66
     1
 10
0.0
 20
0.0
 30
0.0
 70
   128
  0
VERTEX
  8
1
  6
CONTINUOUS
 62
     1
 48
0.229803
  5
1F9
 10
6.449919
 20
11.45329
 30
0.0
 40
0.0
 41
0.0
  0
VERTEX
  8
1
  6
CONTINUOUS
 62
     1
 48
0.229803
  5
1FA
 10
6.949919
 20
11.45329
 30
0.0
 40
0.0
 41
0.0
  0
SEQEND
  8
0
  5
1FB
  0
POLYLINE
  8
1
  6
CONTINUOUS
 62
     1
 48
0.229803
  5
1FC
 66
     1
 10
0.0
 20
0.0
 30
0.0
 70
   128
  0
VERTEX
  8
1
  6
CONTINUOUS
 62
     1
 48
0.229803
  5
1FD
 10
6.449919
 20
9.20329
 30
0.0
 40
0.0
 41
0.0
  0
VERTEX
  8
1
  6
CONTINUOUS
 62
     1
 48
0.229803
  5
1FE
 10
6.949919
 20
9.20329
 30
0.0
 40
0.0
 41
0.0
  0
SEQEND
  8
0
  5
1FF
  0
POLYLINE
  8
1
  6
CONTINUOUS
 62
     1
 48
0.229803
  5
200
 66
     1
 10
0.0
 20
0.0
 30
0.0
 70
   128
  0
VERTEX
  8
1
  6
CONTINUOUS
 62
     1
 48
0.229803
  5
201
 10
6.949919
 20
9.20329
 30
0.0
 40
0.0
 41
0.0
  0
VERTEX
  8
1
  6
CONTINUOUS
 62
     1
 48
0.229803
  5
202
 10
6.949919
 20
11.45329
 30
0.0
 40
0.0
 41
0.0
  0
SEQEND
  8
0
  5
203
  0
POLYLINE
  8
1
  6
CONTINUOUS
 62
     1
 48
0.229803
  5
204
 66
     1
 10
0.0
 20
0.0
 30
0.0
 70
   128
  0
VERTEX
  8
1
  6
CONTINUOUS
 62
     1
 48
0.229803
  5
205
 10
6.949919
 20
11.45329
 30
0.0
 40
0.0
 41
0.0
  0
VERTEX
  8
1
  6
CONTINUOUS
 62
     1
 48
0.229803
  5
206
 10
7.637419
 20
11.45329
 30
0.0
 40
0.0
 41
0.0
  0
SEQEND
  8
0
  5
207
  0
POLYLINE
  8
1
  6
CONTINUOUS
 62
     1
 48
0.229803
  5
208
 66
     1
 10
0.0
 20
0.0
 30
0.0
 70
   128
  0
VERTEX
  8
1
  6
CONTINUOUS
 62
     1
 48
0.229803
  5
209
 10
6.949919
 20
9.20329
 30
0.0
 40
0.0
 41
0.0
  0
VERTEX
  8
1
  6
CONTINUOUS
 62
     1
 48
0.229803
  5
20A
 10
7.637419
 20
9.20329
 30
0.0
 40
0.0
 41
0.0
  0
SEQEND
  8
0
  5
20B
  0
POLYLINE
  8
1
  6
CONTINUOUS
 62
     1
 48
0.229803
  5
20C
 66
     1
 10
0.0
 20
0.0
 30
0.0
 70
   128
  0
VERTEX
  8
1
  6
CONTINUOUS
 62
     1
 48
0.229803
  5
20D
 10
7.637419
 20
9.20329
 30
0.0
 40
0.0
 41
0.0
  0
VERTEX
  8
1
  6
CONTINUOUS
 62
     1
 48
0.229803
  5
20E
 10
7.637419
 20
11.45329
 30
0.0
 40
0.0
 41
0.0
  0
SEQEND
  8
0
  5
20F
  0
POLYLINE
  8
1
  6
CONTINUOUS
 62
   250
 48
0.229803
  5
210
 66
     1
 10
0.0
 20
0.0
 30
0.0
 70
   128
  0
VERTEX
  8
1
  6
CONTINUOUS
 62
   250
 48
0.229803
  5
211
 10
8.512419
 20
10.32829
 30
0.0
 40
0.0
 41
0.0
  0
VERTEX
  8
1
  6
CONTINUOUS
 62
   250
 48
0.229803
  5
212
 10
8.512419
 20
10.32829
 30
0.0
 40
0.0
 41
0.0
  0
SEQEND
  8
0
  5
213
  0
CIRCLE
  8
1
  6
CONTINUOUS
 62
   174
 48
0.229803
  5
214
 10
-8.512419
 20
9.20329
 30
0.0
 40
0.625
210
0.0
220
0.0
230
-1.0
  0
CIRCLE
  8
1
  6
CONTINUOUS
 62
    14
 48
0.229803
  5
215
 10
-8.512419
 20
11.20329
 30
0.0
 40
0.4375
210
0.0
220
0.0
230
-1.0
  0
POLYLINE
  8
1
  6
CONTINUOUS
 62
   250
 48
0.229803
  5
216
 66
     1
 10
0.0
 20
0.0
 30
0.0
 70
   128
  0
VERTEX
  8
1
  6
CONTINUOUS
 62
   250
 48
0.229803
  5
217
 10
8.512419
 20
8.57829
 30
0.0
 40
0.0
 41
0.0
  0
VERTEX
  8
1
  6
CONTINUOUS
 62
   250
 48
0.229803
  5
218
 10
8.512419
 20
8.57829
 30
0.0
 40
0.0
 41
0.0
  0
SEQEND
  8
0
  5
219
  0
POLYLINE
  8
1
  6
CONTINUOUS
 62
     1
 48
0.229803
  5
21A
 66
     1
 10
0.0
 20
0.0
 30
0.0
 70
   128
  0
VERTEX
  8
1
  6
CONTINUOUS
 62
     1
 48
0.229803
  5
21B
 10
13.134918
 20
11.95329
 30
0.0
 40
0.0
 41
0.0
  0
VERTEX
  8
1
  6
CONTINUOUS
 62
     1
 48
0.229803
  5
21C
 10
13.634918
 20
11.95329
 30
0.0
 40
0.0
 41
0.0
  0
SEQEND
  8
0
  5
21D
  0
POLYLINE
  8
1
  6
CONTINUOUS
 62
     1
 48
0.229803
  5
21E
 66
     1
 10
0.0
 20
0.0
 30
0.0
 70
   128
  0
VERTEX
  8
1
  6
CONTINUOUS
 62
     1
 48
0.229803
  5
21F
 10
13.634918
 20
11.95329
 30
0.0
 40
0.0
 41
0.0
  0
VERTEX
  8
1
  6
CONTINUOUS
 62
     1
 48
0.229803
  5
220
 10
14.322418
 20
11.95329
 30
0.0
 40
0.0
 41
0.0
  0
SEQEND
  8
0
  5
221
  0
POLYLINE
  8
1
  6
CONTINUOUS
 62
     1
 48
0.229803
  5
222
 66
     1
 10
0.0
 20
0.0
 30
0.0
 70
   128
  0
VERTEX
  8
1
  6
CONTINUOUS
 62
     1
 48
0.229803
  5
223
 10
13.134918
 20
8.70329
 30
0.0
 40
0.0
 41
0.0
  0
VERTEX
  8
1
  6
CONTINUOUS
 62
     1
 48
0.229803
  5
224
 10
13.634918
 20
8.70329
 30
0.0
 40
0.0
 41
0.0
  0
SEQEND
  8
0
  5
225
  0
POLYLINE
  8
1
  6
CONTINUOUS
 62
     1
 48
0.229803
  5
226
 66
     1
 10
0.0
 20
0.0
 30
0.0
 70
   128
  0
VERTEX
  8
1
  6
CONTINUOUS
 62
     1
 48
0.229803
  5
227
 10
13.634918
 20
8.70329
 30
0.0
 40
0.0
 41
0.0
  0
VERTEX
  8
1
  6
CONTINUOUS
 62
     1
 48
0.229803
  5
228
 10
14.322418
 20
8.70329
 30
0.0
 40
0.0
 41
0.0
  0
SEQEND
  8
0
  5
229
  0
POLYLINE
  8
1
  6
CONTINUOUS
 62
     1
 48
0.229803
  5
22A
 66
     1
 10
0.0
 20
0.0
 30
0.0
 70
   128
  0
VERTEX
  8
1
  6
CONTINUOUS
 62
     1
 48
0.229803
  5
22B
 10
14.322418
 20
8.70329
 30
0.0
 40
0.0
 41
0.0
  0
VERTEX
  8
1
  6
CONTINUOUS
 62
     1
 48
0.229803
  5
22C
 10
14.322418
 20
11.95329
 30
0.0
 40
0.0
 41
0.0
  0
SEQEND
  8
0
  5
22D
  0
POLYLINE
  8
1
  6
CONTINUOUS
 62
     1
 48
0.229803
  5
22E
 66
     1
 10
0.0
 20
0.0
 30
0.0
 70
   128
  0
VERTEX
  8
1
  6
CONTINUOUS
 62
     1
 48
0.229803
  5
22F
 10
14.322418
 20
8.70329
 30
0.0
 40
0.0
 41
0.0
  0
VERTEX
  8
1
  6
CONTINUOUS
 62
     1
 48
0.229803
  5
230
 10
16.07242
 20
8.70329
 30
0.0
 40
0.0
 41
0.0
  0
SEQEND
  8
0
  5
231
  0
POLYLINE
  8
1
  6
CONTINUOUS
 62
     1
 48
0.229803
  5
232
 66
     1
 10
0.0
 20
0.0
 30
0.0
 70
   128
  0
VERTEX
  8
1
  6
CONTINUOUS
 62
     1
 48
0.229803
  5
233
 10
14.322418
 20
11.95329
 30
0.0
 40
0.0
 41
0.0
  0
VERTEX
  8
1
  6
CONTINUOUS
 62
     1
 48
0.229803
  5
234
 10
16.07242
 20
11.95329
 30
0.0
 40
0.0
 41
0.0
  0
SEQEND
  8
0
  5
235
  0
POLYLINE
  8
1
  6
CONTINUOUS
 62
     1
 48
0.229803
  5
236
 66
     1
 10
0.0
 20
0.0
 30
0.0
 70
   128
  0
VERTEX
  8
1
  6
CONTINUOUS
 62
     1
 48
0.229803
  5
237
 10
16.07242
 20
11.95329
 30
0.0
 40
0.0
 41
0.0
  0
VERTEX
  8
1
  6
CONTINUOUS
 62
     1
 48
0.229803
  5
238
 10
16.07242
 20
8.70329
 30
0.0
 40
0.0
 41
0.0
  0
SEQEND
  8
0
  5
239
  0
POLYLINE
  8
1
  6
CONTINUOUS
 62
   250
 48
0.229803
  5
23A
 66
     1
 10
0.0
 20
0.0
 30
0.0
 70
   128
  0
VERTEX
  8
1
  6
CONTINUOUS
 62
   250
 48
0.229803
  5
23B
 10
8.512419
 20
8.32829
 30
0.0
 40
0.0
 41
0.0
  0
VERTEX
  8
1
  6
CONTINUOUS
 62
   250
 48
0.229803
  5
23C
 10
8.512419
 20
8.32829
 30
0.0
 40
0.0
 41
0.0
  0
SEQEND
  8
0
  5
23D
  0
POLYLINE
  8
1
  6
CONTINUOUS
 62
   250
 48
0.229803
  5
23E
 66
     1
 10
0.0
 20
0.0
 30
0.0
 70
   128
  0
VERTEX
  8
1
  6
CONTINUOUS
 62
   250
 48
0.229803
  5
23F
 10
8.512419
 20
11.82829
 30
0.0
 40
0.0
 41
0.0
  0
VERTEX
  8
1
  6
CONTINUOUS
 62
   250
 48
0.229803
  5
240
 10
8.512419
 20
11.82829
 30
0.0
 40
0.0
 41
0.0
  0
SEQEND
  8
0
  5
241
  0
POLYLINE
  8
1
  6
CONTINUOUS
 62
   174
 48
0.229803
  5
242
 66
     1
 10
0.0
 20
0.0
 30
0.0
 70
   128
  0
VERTEX
  8
1
  6
CONTINUOUS
 62
   174
 48
0.229803
  5
243
 10
14.57242
 20
8.70329
 30
0.0
 40
0.0
 41
0.0
  0
VERTEX
  8
1
  6
CONTINUOUS
 62
   174
 48
0.229803
  5
244
 10
14.57242
 20
11.95329
 30
0.0
 40
0.0
 41
0.0
  0
SEQEND
  8
0
  5
245
  0
POLYLINE
  8
1
  6
CONTINUOUS
 62
   174
 48
0.229803
  5
246
 66
     1
 10
0.0
 20
0.0
 30
0.0
 70
   128
  0
VERTEX
  8
1
  6
CONTINUOUS
 62
   174
 48
0.229803
  5
247
 10
15.82242
 20
11.95329
 30
0.0
 40
0.0
 41
0.0
  0
VERTEX
  8
1
  6
CONTINUOUS
 62
   174
 48
0.229803
  5
248
 10
15.82242
 20
8.70329
 30
0.0
 40
0.0
 41
0.0
  0
SEQEND
  8
0
  5
249
  0
POLYLINE
  8
1
  6
CONTINUOUS
 62
     1
 48
0.229803
  5
24A
 66
     1
 10
0.0
 20
0.0
 30
0.0
 70
   128
  0
VERTEX
  8
1
  6
CONTINUOUS
 62
     1
 48
0.229803
  5
24B
 10
9.387419
 20
8.01579
 30
0.0
 40
0.0
 41
0.0
  0
VERTEX
  8
1
  6
CONTINUOUS
 62
     1
 48
0.229803
  5
24C
 10
7.637419
 20
8.01579
 30
0.0
 40
0.0
 41
0.0
  0
SEQEND
  8
0
  5
24D
  0
POLYLINE
  8
1
  6
CONTINUOUS
 62
     1
 48
0.229803
  5
24E
 66
     1
 10
0.0
 20
0.0
 30
0.0
 70
   128
  0
VERTEX
  8
1
  6
CONTINUOUS
 62
     1
 48
0.229803
  5
24F
 10
9.387419
 20
8.01579
 30
0.0
 40
0.0
 41
0.0
  0
VERTEX
  8
1
  6
CONTINUOUS
 62
     1
 48
0.229803
  5
250
 10
9.387419
 20
12.14079
 30
0.0
 40
0.0
 41
0.0
  0
VERTEX
  8
1
  6
CONTINUOUS
 62
     1
 48
0.229803
  5
251
 10
7.637419
 20
12.14079
 30
0.0
 40
0.0
 41
0.0
  0
SEQEND
  8
0
  5
252
  0
POLYLINE
  8
1
  6
CONTINUOUS
 62
     1
 48
0.229803
  5
253
 66
     1
 10
0.0
 20
0.0
 30
0.0
 70
   128
  0
VERTEX
  8
1
  6
CONTINUOUS
 62
     1
 48
0.229803
  5
254
 10
7.637419
 20
12.14079
 30
0.0
 40
0.0
 41
0.0
  0
VERTEX
  8
1
  6
CONTINUOUS
 62
     1
 48
0.229803
  5
255
 10
7.637419
 20
11.45329
 30
0.0
 40
0.0
 41
0.0
  0
SEQEND
  8
0
  5
256
  0
POLYLINE
  8
1
  6
CONTINUOUS
 62
     1
 48
0.229803
  5
257
 66
     1
 10
0.0
 20
0.0
 30
0.0
 70
   128
  0
VERTEX
  8
1
  6
CONTINUOUS
 62
     1
 48
0.229803
  5
258
 10
7.637419
 20
9.20329
 30
0.0
 40
0.0
 41
0.0
  0
VERTEX
  8
1
  6
CONTINUOUS
 62
     1
 48
0.229803
  5
259
 10
7.637419
 20
8.01579
 30
0.0
 40
0.0
 41
0.0
  0
SEQEND
  8
0
  5
25A
  0
POLYLINE
  8
1
  6
CONTINUOUS
 62
   174
 48
0.229803
  5
25B
 66
     1
 10
0.0
 20
0.0
 30
0.0
 70
   128
  0
VERTEX
  8
1
  6
CONTINUOUS
 62
   174
 48
0.229803
  5
25C
 10
5.388919
 20
7.64079
 30
0.0
 40
0.0
 41
0.0
  0
VERTEX
  8
1
  6
CONTINUOUS
 62
   174
 48
0.229803
  5
25D
 10
7.509919
 20
7.64079
 30
0.0
 40
0.0
 41
0.0
  0
SEQEND
  8
0
  5
25E
  0
POLYLINE
  8
1
  6
CONTINUOUS
 62
    14
 48
0.229803
  5
25F
 66
     1
 10
0.0
 20
0.0
 30
0.0
 70
   128
  0
VERTEX
  8
1
  6
CONTINUOUS
 62
    14
 48
0.229803
  5
260
 10
14.82242
 20
7.95329
 30
0.0
 40
0.0
 41
0.0
  0
VERTEX
  8
1
  6
CONTINUOUS
 62
    14
 48
0.229803
  5
261
 10
14.82242
 20
13.95329
 30
0.0
 40
0.0
 41
0.0
  0
SEQEND
  8
0
  5
262
  0
POLYLINE
  8
1
  6
CONTINUOUS
 62
    14
 48
0.229803
  5
263
 66
     1
 10
0.0
 20
0.0
 30
0.0
 70
   128
  0
VERTEX
  8
1
  6
CONTINUOUS
 62
    14
 48
0.229803
  5
264
 10
15.57242
 20
13.95329
 30
0.0
 40
0.0
 41
0.0
  0
VERTEX
  8
1
  6
CONTINUOUS
 62
    14
 48
0.229803
  5
265
 10
15.57242
 20
7.95329
 30
0.0
 40
0.0
 41
0.0
  0
SEQEND
  8
0
  5
266
  0
POLYLINE
  8
1
  6
CONTINUOUS
 62
   174
 48
0.229803
  5
267
 66
     1
 10
0.0
 20
0.0
 30
0.0
 70
   128
  0
VERTEX
  8
1
  6
CONTINUOUS
 62
   174
 48
0.229803
  5
268
 10
16.32242
 20
8.70329
 30
0.0
 40
0.0
 41
0.0
  0
VERTEX
  8
1
  6
CONTINUOUS
 62
   174
 48
0.229803
  5
269
 10
16.32242
 20
7.95329
 30
0.0
 40
0.0
 41
0.0
  0
VERTEX
  8
1
  6
CONTINUOUS
 62
   174
 48
0.229803
  5
26A
 10
14.07242
 20
7.95329
 30
0.0
 40
0.0
 41
0.0
  0
VERTEX
  8
1
  6
CONTINUOUS
 62
   174
 48
0.229803
  5
26B
 10
14.07242
 20
8.70329
 30
0.0
 40
0.0
 41
0.0
  0
SEQEND
  8
0
  5
26C
  0
POLYLINE
  8
1
  6
CONTINUOUS
 62
   174
 48
0.229803
  5
26D
 66
     1
 10
0.0
 20
0.0
 30
0.0
 70
   128
  0
VERTEX
  8
1
  6
CONTINUOUS
 62
   174
 48
0.229803
  5
26E
 10
16.32242
 20
8.70329
 30
0.0
 40
0.0
 41
0.0
  0
VERTEX
  8
1
  6
CONTINUOUS
 62
   174
 48
0.229803
  5
26F
 10
14.07242
 20
8.70329
 30
0.0
 40
0.0
 41
0.0
  0
SEQEND
  8
0
  5
270
  0
POLYLINE
  8
1
  6
CONTINUOUS
 62
   174
 48
0.229803
  5
271
 66
     1
 10
0.0
 20
0.0
 30
0.0
 70
   128
  0
VERTEX
  8
1
  6
CONTINUOUS
 62
   174
 48
0.229803
  5
272
 10
16.32242
 20
11.95329
 30
0.0
 40
0.0
 41
0.0
  0
VERTEX
  8
1
  6
CONTINUOUS
 62
   174
 48
0.229803
  5
273
 10
16.32242
 20
12.70329
 30
0.0
 40
0.0
 41
0.0
  0
VERTEX
  8
1
  6
CONTINUOUS
 62
   174
 48
0.229803
  5
274
 10
14.07242
 20
12.70329
 30
0.0
 40
0.0
 41
0.0
  0
VERTEX
  8
1
  6
CONTINUOUS
 62
   174
 48
0.229803
  5
275
 10
14.07242
 20
11.95329
 30
0.0
 40
0.0
 41
0.0
  0
VERTEX
  8
1
  6
CONTINUOUS
 62
   174
 48
0.229803
  5
276
 10
16.32242
 20
11.95329
 30
0.0
 40
0.0
 41
0.0
  0
SEQEND
  8
0
  5
277
  0
CIRCLE
  8
1
  6
CONTINUOUS
 62
   174
 48
0.229803
  5
278
 10
-8.512419
 20
9.20329
 30
0.0
 40
1.125
210
0.0
220
0.0
230
-1.0
  0
POLYLINE
  8
1
  6
CONTINUOUS
 62
   174
 48
0.125
  5
279
 66
     1
 10
0.0
 20
0.0
 30
0.0
 70
   128
  0
VERTEX
  8
1
  6
CONTINUOUS
 62
   174
 48
0.125
  5
27A
 10
-0.611081
 20
13.015788
 30
0.0
 40
0.0
 41
0.0
  0
VERTEX
  8
1
  6
CONTINUOUS
 62
   174
 48
0.125
  5
27B
 10
-2.733081
 20
13.015788
 30
0.0
 40
0.0
 41
0.0
  0
SEQEND
  8
0
  5
27C
  0
POLYLINE
  8
1
  6
CONTINUOUS
 62
   174
 48
0.125
  5
27D
 66
     1
 10
0.0
 20
0.0
 30
0.0
 70
   128
  0
VERTEX
  8
1
  6
CONTINUOUS
 62
   174
 48
0.125
  5
27E
 10
-0.611081
 20
13.015788
 30
0.0
 40
0.0
 41
0.0
  0
VERTEX
  8
1
  6
CONTINUOUS
 62
   174
 48
0.125
  5
27F
 10
-0.611081
 20
7.640788
 30
0.0
 40
0.0
 41
0.0
  0
SEQEND
  8
0
  5
280
  0
POLYLINE
  8
1
  6
CONTINUOUS
 62
   174
 48
0.125
  5
281
 66
     1
 10
0.0
 20
0.0
 30
0.0
 70
   128
  0
VERTEX
  8
1
  6
CONTINUOUS
 62
   174
 48
0.125
  5
282
 10
-2.733081
 20
13.015788
 30
0.0
 40
0.0
 41
0.0
  0
VERTEX
  8
1
  6
CONTINUOUS
 62
   174
 48
0.125
  5
283
 10
-2.733081
 20
7.640788
 30
0.0
 40
0.0
 41
0.0
  0
SEQEND
  8
0
  5
284
  0
POLYLINE
  8
1
  6
CONTINUOUS
 62
   174
 48
0.125
  5
285
 66
     1
 10
0.0
 20
0.0
 30
0.0
 70
   128
  0
VERTEX
  8
1
  6
CONTINUOUS
 62
   174
 48
0.125
  5
286
 10
-1.672081
 20
13.015788
 30
0.0
 40
0.0
 41
0.0
  0
VERTEX
  8
1
  6
CONTINUOUS
 62
   174
 48
0.125
  5
287
 10
-1.672081
 20
7.640788
 30
0.0
 40
0.0
 41
0.0
  0
SEQEND
  8
0
  5
288
  0
POLYLINE
  8
1
  6
CONTINUOUS
 62
   174
 48
0.125
  5
289
 66
     1
 10
0.0
 20
0.0
 30
0.0
 70
   128
  0
VERTEX
  8
1
  6
CONTINUOUS
 62
   174
 48
0.125
  5
28A
 10
-0.611081
 20
7.640788
 30
0.0
 40
0.0
 41
0.0
  0
VERTEX
  8
1
  6
CONTINUOUS
 62
   174
 48
0.125
  5
28B
 10
-2.733081
 20
7.640788
 30
0.0
 40
0.0
 41
0.0
  0
SEQEND
  8
0
  5
28C
  0
POLYLINE
  8
1
  6
CONTINUOUS
 62
   250
 48
0.229803
  5
28D
 66
     1
 10
0.0
 20
0.0
 30
0.0
 70
   128
  0
VERTEX
  8
1
  6
CONTINUOUS
 62
   250
 48
0.229803
  5
28E
 10
-1.672081
 20
10.328288
 30
0.0
 40
0.0
 41
0.0
  0
VERTEX
  8
1
  6
CONTINUOUS
 62
   250
 48
0.229803
  5
28F
 10
-1.672081
 20
10.328288
 30
0.0
 40
0.0
 41
0.0
  0
SEQEND
  8
0
  5
290
  0
POLYLINE
  8
1
  6
CONTINUOUS
 62
   250
 48
0.229803
  5
291
 66
     1
 10
0.0
 20
0.0
 30
0.0
 70
   128
  0
VERTEX
  8
1
  6
CONTINUOUS
 62
   250
 48
0.229803
  5
292
 10
-1.672081
 20
9.203288
 30
0.0
 40
0.0
 41
0.0
  0
VERTEX
  8
1
  6
CONTINUOUS
 62
   250
 48
0.229803
  5
293
 10
-1.672081
 20
9.203288
 30
0.0
 40
0.0
 41
0.0
  0
SEQEND
  8
0
  5
294
  0
POLYLINE
  8
1
  6
CONTINUOUS
 62
   250
 48
0.229803
  5
295
 66
     1
 10
0.0
 20
0.0
 30
0.0
 70
   128
  0
VERTEX
  8
1
  6
CONTINUOUS
 62
   250
 48
0.229803
  5
296
 10
-1.672081
 20
11.453288
 30
0.0
 40
0.0
 41
0.0
  0
VERTEX
  8
1
  6
CONTINUOUS
 62
   250
 48
0.229803
  5
297
 10
-1.672081
 20
11.453288
 30
0.0
 40
0.0
 41
0.0
  0
SEQEND
  8
0
  5
298
  0
POLYLINE
  8
1
  6
CONTINUOUS
 62
     1
 48
0.229803
  5
299
 66
     1
 10
0.0
 20
0.0
 30
0.0
 70
   128
  0
VERTEX
  8
1
  6
CONTINUOUS
 62
     1
 48
0.229803
  5
29A
 10
-3.297081
 20
11.453288
 30
0.0
 40
0.0
 41
0.0
  0
VERTEX
  8
1
  6
CONTINUOUS
 62
     1
 48
0.229803
  5
29B
 10
-0.047081
 20
11.453288
 30
0.0
 40
0.0
 41
0.0
  0
SEQEND
  8
0
  5
29C
  0
POLYLINE
  8
1
  6
CONTINUOUS
 62
     1
 48
0.229803
  5
29D
 66
     1
 10
0.0
 20
0.0
 30
0.0
 70
   128
  0
VERTEX
  8
1
  6
CONTINUOUS
 62
     1
 48
0.229803
  5
29E
 10
-0.047081
 20
11.453288
 30
0.0
 40
0.0
 41
0.0
  0
VERTEX
  8
1
  6
CONTINUOUS
 62
     1
 48
0.229803
  5
29F
 10
-0.047081
 20
9.203288
 30
0.0
 40
0.0
 41
0.0
  0
SEQEND
  8
0
  5
2A0
  0
POLYLINE
  8
1
  6
CONTINUOUS
 62
     1
 48
0.229803
  5
2A1
 66
     1
 10
0.0
 20
0.0
 30
0.0
 70
   128
  0
VERTEX
  8
1
  6
CONTINUOUS
 62
     1
 48
0.229803
  5
2A2
 10
-3.297081
 20
11.453288
 30
0.0
 40
0.0
 41
0.0
  0
VERTEX
  8
1
  6
CONTINUOUS
 62
     1
 48
0.229803
  5
2A3
 10
-3.297081
 20
9.203288
 30
0.0
 40
0.0
 41
0.0
  0
SEQEND
  8
0
  5
2A4
  0
POLYLINE
  8
1
  6
CONTINUOUS
 62
     1
 48
0.229803
  5
2A5
 66
     1
 10
0.0
 20
0.0
 30
0.0
 70
   128
  0
VERTEX
  8
1
  6
CONTINUOUS
 62
     1
 48
0.229803
  5
2A6
 10
-3.297081
 20
9.203288
 30
0.0
 40
0.0
 41
0.0
  0
VERTEX
  8
1
  6
CONTINUOUS
 62
     1
 48
0.229803
  5
2A7
 10
-0.047081
 20
9.203288
 30
0.0
 40
0.0
 41
0.0
  0
SEQEND
  8
0
  5
2A8
  0
POLYLINE
  8
1
  6
CONTINUOUS
 62
   250
 48
0.229803
  5
2A9
 66
     1
 10
0.0
 20
0.0
 30
0.0
 70
   128
  0
VERTEX
  8
1
  6
CONTINUOUS
 62
   250
 48
0.229803
  5
2AA
 10
-1.672081
 20
12.328288
 30
0.0
 40
0.0
 41
0.0
  0
VERTEX
  8
1
  6
CONTINUOUS
 62
   250
 48
0.229803
  5
2AB
 10
-1.672081
 20
12.328288
 30
0.0
 40
0.0
 41
0.0
  0
SEQEND
  8
0
  5
2AC
  0
POLYLINE
  8
1
  6
CONTINUOUS
 62
    54
 48
0.229803
  5
2AD
 66
     1
 10
0.0
 20
0.0
 30
0.0
 70
   128
  0
VERTEX
  8
1
  6
CONTINUOUS
 62
    54
 48
0.229803
  5
2AE
 10
-3.672081
 20
12.328288
 30
0.0
 40
0.0
 41
0.0
  0
VERTEX
  8
1
  6
CONTINUOUS
 62
    54
 48
0.229803
  5
2AF
 10
0.327919
 20
12.328288
 30
0.0
 40
0.0
 41
0.0
  0
SEQEND
  8
0
  5
2B0
  0
POLYLINE
  8
1
  6
CONTINUOUS
 62
   250
 48
0.229803
  5
2B1
 66
     1
 10
0.0
 20
0.0
 30
0.0
 70
   128
  0
VERTEX
  8
1
  6
CONTINUOUS
 62
   250
 48
0.229803
  5
2B2
 10
-1.672081
 20
8.328288
 30
0.0
 40
0.0
 41
0.0
  0
VERTEX
  8
1
  6
CONTINUOUS
 62
   250
 48
0.229803
  5
2B3
 10
-1.672081
 20
8.328288
 30
0.0
 40
0.0
 41
0.0
  0
SEQEND
  8
0
  5
2B4
  0
POLYLINE
  8
1
  6
CONTINUOUS
 62
    54
 48
0.229803
  5
2B5
 66
     1
 10
0.0
 20
0.0
 30
0.0
 70
   128
  0
VERTEX
  8
1
  6
CONTINUOUS
 62
    54
 48
0.229803
  5
2B6
 10
-3.672081
 20
8.328288
 30
0.0
 40
0.0
 41
0.0
  0
VERTEX
  8
1
  6
CONTINUOUS
 62
    54
 48
0.229803
  5
2B7
 10
0.327919
 20
8.328288
 30
0.0
 40
0.0
 41
0.0
  0
SEQEND
  8
0
  5
2B8
  0
POLYLINE
  8
1
  6
CONTINUOUS
 62
    54
 48
0.229803
  5
2B9
 66
     1
 10
0.0
 20
0.0
 30
0.0
 70
   128
  0
VERTEX
  8
1
  6
CONTINUOUS
 62
    54
 48
0.229803
  5
2BA
 10
0.327919
 20
8.328288
 30
0.0
 40
0.0
 41
0.0
  0
VERTEX
  8
1
  6
CONTINUOUS
 62
    54
 48
0.229803
  5
2BB
 10
0.327919
 20
12.328288
 30
0.0
 40
0.0
 41
0.0
  0
SEQEND
  8
0
  5
2BC
  0
POLYLINE
  8
1
  6
CONTINUOUS
 62
    54
 48
0.229803
  5
2BD
 66
     1
 10
0.0
 20
0.0
 30
0.0
 70
   128
  0
VERTEX
  8
1
  6
CONTINUOUS
 62
    54
 48
0.229803
  5
2BE
 10
-3.672081
 20
8.328288
 30
0.0
 40
0.0
 41
0.0
  0
VERTEX
  8
1
  6
CONTINUOUS
 62
    54
 48
0.229803
  5
2BF
 10
-3.672081
 20
12.328288
 30
0.0
 40
0.0
 41
0.0
  0
SEQEND
  8
0
  5
2C0
  0
POLYLINE
  8
1
  6
CONTINUOUS
 62
     1
 48
0.229803
  5
2C1
 66
     1
 10
0.0
 20
0.0
 30
0.0
 70
   128
  0
VERTEX
  8
1
  6
CONTINUOUS
 62
     1
 48
0.229803
  5
2C2
 10
-3.297081
 20
8.015288
 30
0.0
 40
0.0
 41
0.0
  0
VERTEX
  8
1
  6
CONTINUOUS
 62
     1
 48
0.229803
  5
2C3
 10
-0.047081
 20
8.015288
 30
0.0
 40
0.0
 41
0.0
  0
SEQEND
  8
0
  5
2C4
  0
POLYLINE
  8
1
  6
CONTINUOUS
 62
     1
 48
0.229803
  5
2C5
 66
     1
 10
0.0
 20
0.0
 30
0.0
 70
   128
  0
VERTEX
  8
1
  6
CONTINUOUS
 62
     1
 48
0.229803
  5
2C6
 10
-0.047081
 20
12.140288
 30
0.0
 40
0.0
 41
0.0
  0
VERTEX
  8
1
  6
CONTINUOUS
 62
     1
 48
0.229803
  5
2C7
 10
-3.297081
 20
12.140288
 30
0.0
 40
0.0
 41
0.0
  0
SEQEND
  8
0
  5
2C8
  0
POLYLINE
  8
1
  6
CONTINUOUS
 62
     1
 48
0.229803
  5
2C9
 66
     1
 10
0.0
 20
0.0
 30
0.0
 70
   128
  0
VERTEX
  8
1
  6
CONTINUOUS
 62
     1
 48
0.229803
  5
2CA
 10
-3.297081
 20
12.140288
 30
0.0
 40
0.0
 41
0.0
  0
VERTEX
  8
1
  6
CONTINUOUS
 62
     1
 48
0.229803
  5
2CB
 10
-3.297081
 20
11.453288
 30
0.0
 40
0.0
 41
0.0
  0
SEQEND
  8
0
  5
2CC
  0
POLYLINE
  8
1
  6
CONTINUOUS
 62
     1
 48
0.229803
  5
2CD
 66
     1
 10
0.0
 20
0.0
 30
0.0
 70
   128
  0
VERTEX
  8
1
  6
CONTINUOUS
 62
     1
 48
0.229803
  5
2CE
 10
-0.047081
 20
12.140288
 30
0.0
 40
0.0
 41
0.0
  0
VERTEX
  8
1
  6
CONTINUOUS
 62
     1
 48
0.229803
  5
2CF
 10
-0.047081
 20
11.453288
 30
0.0
 40
0.0
 41
0.0
  0
SEQEND
  8
0
  5
2D0
  0
POLYLINE
  8
1
  6
CONTINUOUS
 62
     1
 48
0.229803
  5
2D1
 66
     1
 10
0.0
 20
0.0
 30
0.0
 70
   128
  0
VERTEX
  8
1
  6
CONTINUOUS
 62
     1
 48
0.229803
  5
2D2
 10
-0.047081
 20
9.203288
 30
0.0
 40
0.0
 41
0.0
  0
VERTEX
  8
1
  6
CONTINUOUS
 62
     1
 48
0.229803
  5
2D3
 10
-0.047081
 20
8.015288
 30
0.0
 40
0.0
 41
0.0
  0
SEQEND
  8
0
  5
2D4
  0
POLYLINE
  8
1
  6
CONTINUOUS
 62
     1
 48
0.229803
  5
2D5
 66
     1
 10
0.0
 20
0.0
 30
0.0
 70
   128
  0
VERTEX
  8
1
  6
CONTINUOUS
 62
     1
 48
0.229803
  5
2D6
 10
-3.297081
 20
9.203288
 30
0.0
 40
0.0
 41
0.0
  0
VERTEX
  8
1
  6
CONTINUOUS
 62
     1
 48
0.229803
  5
2D7
 10
-3.297081
 20
8.015288
 30
0.0
 40
0.0
 41
0.0
  0
SEQEND
  8
0
  5
2D8
  0
POLYLINE
  8
1
  6
CONTINUOUS
 62
   174
 48
0.229803
  5
2D9
 66
     1
 10
0.0
 20
0.0
 30
0.0
 70
   128
  0
VERTEX
  8
1
  6
CONTINUOUS
 62
   174
 48
0.229803
  5
2DA
 10
-0.047081
 20
10.328288
 30
0.0
 40
0.0
 41
0.0
  0
VERTEX
  8
1
  6
CONTINUOUS
 62
   174
 48
0.229803
  5
2DB
 10
0.702919
 20
10.328288
 30
0.0
 40
0.0
 41
0.0
  0
VERTEX
  8
1
  6
CONTINUOUS
 62
   174
 48
0.229803
  5
2DC
 10
0.702919
 20
8.078288
 30
0.0
 40
0.0
 41
0.0
  0
VERTEX
  8
1
  6
CONTINUOUS
 62
   174
 48
0.229803
  5
2DD
 10
-0.047081
 20
8.078288
 30
0.0
 40
0.0
 41
0.0
  0
VERTEX
  8
1
  6
CONTINUOUS
 62
   174
 48
0.229803
  5
2DE
 10
-0.047081
 20
10.328288
 30
0.0
 40
0.0
 41
0.0
  0
SEQEND
  8
0
  5
2DF
  0
POLYLINE
  8
1
  6
CONTINUOUS
 62
   174
 48
0.229803
  5
2E0
 66
     1
 10
0.0
 20
0.0
 30
0.0
 70
   128
  0
VERTEX
  8
1
  6
CONTINUOUS
 62
   174
 48
0.229803
  5
2E1
 10
-3.297081
 20
10.328288
 30
0.0
 40
0.0
 41
0.0
  0
VERTEX
  8
1
  6
CONTINUOUS
 62
   174
 48
0.229803
  5
2E2
 10
-4.047081
 20
10.328288
 30
0.0
 40
0.0
 41
0.0
  0
VERTEX
  8
1
  6
CONTINUOUS
 62
   174
 48
0.229803
  5
2E3
 10
-4.047081
 20
8.078288
 30
0.0
 40
0.0
 41
0.0
  0
VERTEX
  8
1
  6
CONTINUOUS
 62
   174
 48
0.229803
  5
2E4
 10
-3.297081
 20
8.078288
 30
0.0
 40
0.0
 41
0.0
  0
VERTEX
  8
1
  6
CONTINUOUS
 62
   174
 48
0.229803
  5
2E5
 10
-3.297081
 20
10.328288
 30
0.0
 40
0.0
 41
0.0
  0
SEQEND
  8
0
  5
2E6
  0
POLYLINE
  8
1
  6
CONTINUOUS
 62
   174
 48
0.229803
  5
2E7
 66
     1
 10
0.0
 20
0.0
 30
0.0
 70
   128
  0
VERTEX
  8
1
  6
CONTINUOUS
 62
   174
 48
0.229803
  5
2E8
 10
-0.047081
 20
8.578288
 30
0.0
 40
0.0
 41
0.0
  0
VERTEX
  8
1
  6
CONTINUOUS
 62
   174
 48
0.229803
  5
2E9
 10
-3.297081
 20
8.578288
 30
0.0
 40
0.0
 41
0.0
  0
SEQEND
  8
0
  5
2EA
  0
POLYLINE
  8
1
  6
CONTINUOUS
 62
   174
 48
0.229803
  5
2EB
 66
     1
 10
0.0
 20
0.0
 30
0.0
 70
   128
  0
VERTEX
  8
1
  6
CONTINUOUS
 62
   174
 48
0.229803
  5
2EC
 10
-3.297081
 20
9.828288
 30
0.0
 40
0.0
 41
0.0
  0
VERTEX
  8
1
  6
CONTINUOUS
 62
   174
 48
0.229803
  5
2ED
 10
-0.047081
 20
9.828288
 30
0.0
 40
0.0
 41
0.0
  0
SEQEND
  8
0
  5
2EE
  0
POLYLINE
  8
1
  6
CONTINUOUS
 62
   174
 48
0.229803
  5
2EF
 66
     1
 10
0.0
 20
0.0
 30
0.0
 70
   128
  0
VERTEX
  8
1
  6
CONTINUOUS
 62
   174
 48
0.229803
  5
2F0
 10
2.184919
 20
7.64079
 30
0.0
 40
0.0
 41
0.0
  0
VERTEX
  8
1
  6
CONTINUOUS
 62
   174
 48
0.229803
  5
2F1
 10
8.234919
 20
7.64079
 30
0.0
 40
0.0
 41
0.0
  0
SEQEND
  8
0
  5
2F2
  0
POLYLINE
  8
1
  6
CONTINUOUS
 62
    14
 48
0.229803
  5
2F3
 66
     1
 10
0.0
 20
0.0
 30
0.0
 70
   128
  0
VERTEX
  8
1
  6
CONTINUOUS
 62
    14
 48
0.229803
  5
2F4
 10
-4.047081
 20
9.578288
 30
0.0
 40
0.0
 41
0.0
  0
VERTEX
  8
1
  6
CONTINUOUS
 62
    14
 48
0.229803
  5
2F5
 10
0.952919
 20
9.578288
 30
0.0
 40
0.0
 41
0.0
  0
VERTEX
  8
1
  6
CONTINUOUS
 62
    14
 48
0.229803
  5
2F6
 10
0.952919
 20
8.828288
 30
0.0
 40
0.0
 41
0.0
  0
VERTEX
  8
1
  6
CONTINUOUS
 62
    14
 48
0.229803
  5
2F7
 10
-4.047081
 20
8.828288
 30
0.0
 40
0.0
 41
0.0
  0
SEQEND
  8
0
  5
2F8
  0
POLYLINE
  8
1
  6
CONTINUOUS
 62
    14
 48
0.229803
  5
2F9
 66
     1
 10
0.0
 20
0.0
 30
0.0
 70
   128
  0
VERTEX
  8
1
  6
CONTINUOUS
 62
    14
 48
0.229803
  5
2FA
 10
-4.297081
 20
9.703288
 30
0.0
 40
0.0
 41
0.0
  0
VERTEX
  8
1
  6
CONTINUOUS
 62
    14
 48
0.229803
  5
2FB
 10
-9.047081
 20
9.703288
 30
0.0
 40
0.0
 41
0.0
  0
VERTEX
  8
1
  6
CONTINUOUS
 62
    14
 48
0.229803
  5
2FC
 10
-9.047081
 20
8.703288
 30
0.0
 40
0.0
 41
0.0
  0
VERTEX
  8
1
  6
CONTINUOUS
 62
    14
 48
0.229803
  5
2FD
 10
-4.297081
 20
8.703288
 30
0.0
 40
0.0
 41
0.0
  0
SEQEND
  8
0
  5
2FE
  0
POLYLINE
  8
1
  6
CONTINUOUS
 62
   134
 48
0.229803
  5
2FF
 66
     1
 10
0.0
 20
0.0
 30
0.0
 70
   128
  0
VERTEX
  8
1
  6
CONTINUOUS
 62
   134
 48
0.229803
  5
300
 10
-6.547081
 20
10.703288
 30
0.0
 40
0.0
 41
0.0
  0
VERTEX
  8
1
  6
CONTINUOUS
 62
   134
 48
0.229803
  5
301
 10
-6.297081
 20
10.703288
 30
0.0
 40
0.0
 41
0.0
  0
VERTEX
  8
1
  6
CONTINUOUS
 62
   134
 48
0.229803
  5
302
 10
-6.297081
 20
7.703288
 30
0.0
 40
0.0
 41
0.0
  0
VERTEX
  8
1
  6
CONTINUOUS
 62
   134
 48
0.229803
  5
303
 10
-6.547081
 20
7.703288
 30
0.0
 40
0.0
 41
0.0
  0
VERTEX
  8
1
  6
CONTINUOUS
 62
   134
 48
0.229803
  5
304
 10
-6.547081
 20
10.703288
 30
0.0
 40
0.0
 41
0.0
  0
SEQEND
  8
0
  5
305
  0
POLYLINE
  8
1
  6
CONTINUOUS
 62
    14
 48
0.229803
  5
306
 66
     1
 10
0.0
 20
0.0
 30
0.0
 70
   128
  0
VERTEX
  8
1
  6
CONTINUOUS
 62
    14
 48
0.229803
  5
307
 10
0.202919
 20
10.765788
 30
0.0
 40
0.0
 41
0.0
  0
VERTEX
  8
1
  6
CONTINUOUS
 62
    14
 48
0.229803
  5
308
 10
-9.047081
 20
10.765788
 30
0.0
 40
0.0
 41
0.0
  0
VERTEX
  8
1
  6
CONTINUOUS
 62
    14
 48
0.229803
  5
309
 10
-9.047081
 20
11.640788
 30
0.0
 40
0.0
 41
0.0
  0
VERTEX
  8
1
  6
CONTINUOUS
 62
    14
 48
0.229803
  5
30A
 10
0.202919
 20
11.640788
 30
0.0
 40
0.0
 41
0.0
  0
SEQEND
  8
0
  5
30B
  0
POLYLINE
  8
1
  6
CONTINUOUS
 62
    14
 48
0.229803
  5
30C
 66
     1
 10
0.0
 20
0.0
 30
0.0
 70
   128
  0
VERTEX
  8
1
  6
CONTINUOUS
 62
    14
 48
0.229803
  5
30D
 10
0.202919
 20
11.640788
 30
0.0
 40
0.0
 41
0.0
  0
VERTEX
  8
1
  6
CONTINUOUS
 62
    14
 48
0.229803
  5
30E
 10
0.202919
 20
10.765788
 30
0.0
 40
0.0
 41
0.0
  0
SEQEND
  8
0
  5
30F
  0
POLYLINE
  8
1
  6
CONTINUOUS
 62
    14
 48
0.229803
  5
310
 66
     1
 10
0.0
 20
0.0
 30
0.0
 70
   128
  0
VERTEX
  8
1
  6
CONTINUOUS
 62
    14
 48
0.229803
  5
311
 10
-4.297081
 20
9.953288
 30
0.0
 40
0.0
 41
0.0
  0
VERTEX
  8
1
  6
CONTINUOUS
 62
    14
 48
0.229803
  5
312
 10
-4.047081
 20
9.953288
 30
0.0
 40
0.0
 41
0.0
  0
VERTEX
  8
1
  6
CONTINUOUS
 62
    14
 48
0.229803
  5
313
 10
-4.047081
 20
8.453288
 30
0.0
 40
0.0
 41
0.0
  0
VERTEX
  8
1
  6
CONTINUOUS
 62
    14
 48
0.229803
  5
314
 10
-4.297081
 20
8.453288
 30
0.0
 40
0.0
 41
0.0
  0
SEQEND
  8
0
  5
315
  0
POLYLINE
  8
1
  6
CONTINUOUS
 62
    14
 48
0.229803
  5
316
 66
     1
 10
0.0
 20
0.0
 30
0.0
 70
   128
  0
VERTEX
  8
1
  6
CONTINUOUS
 62
    14
 48
0.229803
  5
317
 10
-4.297081
 20
9.953288
 30
0.0
 40
0.0
 41
0.0
  0
VERTEX
  8
1
  6
CONTINUOUS
 62
    14
 48
0.229803
  5
318
 10
-4.297081
 20
8.453288
 30
0.0
 40
0.0
 41
0.0
  0
SEQEND
  8
0
  5
319
  0
POLYLINE
  8
1
  6
CONTINUOUS
 62
   134
 48
0.229803
  5
31A
 66
     1
 10
0.0
 20
0.0
 30
0.0
 70
   128
  0
VERTEX
  8
1
  6
CONTINUOUS
 62
   134
 48
0.229803
  5
31B
 10
-6.027081
 20
10.703288
 30
0.0
 40
0.0
 41
0.0
  0
VERTEX
  8
1
  6
CONTINUOUS
 62
   134
 48
0.229803
  5
31C
 10
-5.777081
 20
10.703288
 30
0.0
 40
0.0
 41
0.0
  0
VERTEX
  8
1
  6
CONTINUOUS
 62
   134
 48
0.229803
  5
31D
 10
-5.777081
 20
7.703288
 30
0.0
 40
0.0
 41
0.0
  0
VERTEX
  8
1
  6
CONTINUOUS
 62
   134
 48
0.229803
  5
31E
 10
-6.027081
 20
7.703288
 30
0.0
 40
0.0
 41
0.0
  0
VERTEX
  8
1
  6
CONTINUOUS
 62
   134
 48
0.229803
  5
31F
 10
-6.027081
 20
10.703288
 30
0.0
 40
0.0
 41
0.0
  0
SEQEND
  8
0
  5
320
  0
POLYLINE
  8
1
  6
CONTINUOUS
 62
     1
 48
0.229803
  5
321
 66
     1
 10
0.0
 20
0.0
 30
0.0
 70
   128
  0
VERTEX
  8
1
  6
CONTINUOUS
 62
     1
 48
0.229803
  5
322
 10
-9.047081
 20
12.140288
 30
0.0
 40
0.0
 41
0.0
  0
VERTEX
  8
1
  6
CONTINUOUS
 62
     1
 48
0.229803
  5
323
 10
-8.047081
 20
12.140288
 30
0.0
 40
0.0
 41
0.0
  0
SEQEND
  8
0
  5
324
  0
POLYLINE
  8
1
  6
CONTINUOUS
 62
     1
 48
0.229803
  5
325
 66
     1
 10
0.0
 20
0.0
 30
0.0
 70
   128
  0
VERTEX
  8
1
  6
CONTINUOUS
 62
     1
 48
0.229803
  5
326
 10
-9.047081
 20
8.015288
 30
0.0
 40
0.0
 41
0.0
  0
VERTEX
  8
1
  6
CONTINUOUS
 62
     1
 48
0.229803
  5
327
 10
-8.047081
 20
8.015288
 30
0.0
 40
0.0
 41
0.0
  0
SEQEND
  8
0
  5
328
  0
POLYLINE
  8
1
  6
CONTINUOUS
 62
     1
 48
0.229803
  5
329
 66
     1
 10
0.0
 20
0.0
 30
0.0
 70
   128
  0
VERTEX
  8
1
  6
CONTINUOUS
 62
     1
 48
0.229803
  5
32A
 10
-8.047081
 20
8.015288
 30
0.0
 40
0.0
 41
0.0
  0
VERTEX
  8
1
  6
CONTINUOUS
 62
     1
 48
0.229803
  5
32B
 10
-8.047081
 20
12.140288
 30
0.0
 40
0.0
 41
0.0
  0
SEQEND
  8
0
  5
32C
  0
POLYLINE
  8
1
  6
CONTINUOUS
 62
     1
 48
0.229803
  5
32D
 66
     1
 10
0.0
 20
0.0
 30
0.0
 70
   128
  0
VERTEX
  8
1
  6
CONTINUOUS
 62
     1
 48
0.229803
  5
32E
 10
-9.047081
 20
8.015288
 30
0.0
 40
0.0
 41
0.0
  0
VERTEX
  8
1
  6
CONTINUOUS
 62
     1
 48
0.229803
  5
32F
 10
-9.047081
 20
12.140288
 30
0.0
 40
0.0
 41
0.0
  0
SEQEND
  8
0
  5
330
  0
POLYLINE
  8
1
  6
CONTINUOUS
 62
    14
 48
0.229803
  5
331
 66
     1
 10
0.0
 20
0.0
 30
0.0
 70
   128
  0
VERTEX
  8
1
  6
CONTINUOUS
 62
    14
 48
0.229803
  5
332
 10
14.69742
 20
7.70329
 30
0.0
 40
0.0
 41
0.0
  0
VERTEX
  8
1
  6
CONTINUOUS
 62
    14
 48
0.229803
  5
333
 10
14.69742
 20
2.95329
 30
0.0
 40
0.0
 41
0.0
  0
VERTEX
  8
1
  6
CONTINUOUS
 62
    14
 48
0.229803
  5
334
 10
15.69742
 20
2.95329
 30
0.0
 40
0.0
 41
0.0
  0
VERTEX
  8
1
  6
CONTINUOUS
 62
    14
 48
0.229803
  5
335
 10
15.69742
 20
7.70329
 30
0.0
 40
0.0
 41
0.0
  0
SEQEND
  8
0
  5
336
  0
POLYLINE
  8
1
  6
CONTINUOUS
 62
    14
 48
0.229803
  5
337
 66
     1
 10
0.0
 20
0.0
 30
0.0
 70
   128
  0
VERTEX
  8
1
  6
CONTINUOUS
 62
    14
 48
0.229803
  5
338
 10
14.44742
 20
7.70329
 30
0.0
 40
0.0
 41
0.0
  0
VERTEX
  8
1
  6
CONTINUOUS
 62
    14
 48
0.229803
  5
339
 10
14.44742
 20
7.95329
 30
0.0
 40
0.0
 41
0.0
  0
VERTEX
  8
1
  6
CONTINUOUS
 62
    14
 48
0.229803
  5
33A
 10
15.94742
 20
7.95329
 30
0.0
 40
0.0
 41
0.0
  0
VERTEX
  8
1
  6
CONTINUOUS
 62
    14
 48
0.229803
  5
33B
 10
15.94742
 20
7.70329
 30
0.0
 40
0.0
 41
0.0
  0
SEQEND
  8
0
  5
33C
  0
POLYLINE
  8
1
  6
CONTINUOUS
 62
    14
 48
0.229803
  5
33D
 66
     1
 10
0.0
 20
0.0
 30
0.0
 70
   128
  0
VERTEX
  8
1
  6
CONTINUOUS
 62
    14
 48
0.229803
  5
33E
 10
14.44742
 20
7.70329
 30
0.0
 40
0.0
 41
0.0
  0
VERTEX
  8
1
  6
CONTINUOUS
 62
    14
 48
0.229803
  5
33F
 10
15.94742
 20
7.70329
 30
0.0
 40
0.0
 41
0.0
  0
SEQEND
  8
0
  5
340
  0
POLYLINE
  8
1
  6
CONTINUOUS
 62
    14
 48
0.229803
  5
341
 66
     1
 10
0.0
 20
0.0
 30
0.0
 70
   128
  0
VERTEX
  8
1
  6
CONTINUOUS
 62
    14
 48
0.229803
  5
342
 10
14.82242
 20
13.95329
 30
0.0
 40
0.0
 41
0.0
  0
VERTEX
  8
1
  6
CONTINUOUS
 62
    14
 48
0.229803
  5
343
 10
15.57242
 20
13.95329
 30
0.0
 40
0.0
 41
0.0
  0
SEQEND
  8
0
  5
344
  0
POLYLINE
  8
1
  6
CONTINUOUS
 62
     1
 48
0.229803
  5
345
 66
     1
 10
0.0
 20
0.0
 30
0.0
 70
   128
  0
VERTEX
  8
1
  6
CONTINUOUS
 62
     1
 48
0.229803
  5
346
 10
14.07242
 20
2.95329
 30
0.0
 40
0.0
 41
0.0
  0
VERTEX
  8
1
  6
CONTINUOUS
 62
     1
 48
0.229803
  5
347
 10
14.07242
 20
3.95329
 30
0.0
 40
0.0
 41
0.0
  0
SEQEND
  8
0
  5
348
  0
POLYLINE
  8
1
  6
CONTINUOUS
 62
     1
 48
0.229803
  5
349
 66
     1
 10
0.0
 20
0.0
 30
0.0
 70
   128
  0
VERTEX
  8
1
  6
CONTINUOUS
 62
     1
 48
0.229803
  5
34A
 10
16.32242
 20
2.95329
 30
0.0
 40
0.0
 41
0.0
  0
VERTEX
  8
1
  6
CONTINUOUS
 62
     1
 48
0.229803
  5
34B
 10
16.32242
 20
3.95329
 30
0.0
 40
0.0
 41
0.0
  0
SEQEND
  8
0
  5
34C
  0
POLYLINE
  8
1
  6
CONTINUOUS
 62
     1
 48
0.229803
  5
34D
 66
     1
 10
0.0
 20
0.0
 30
0.0
 70
   128
  0
VERTEX
  8
1
  6
CONTINUOUS
 62
     1
 48
0.229803
  5
34E
 10
16.32242
 20
3.95329
 30
0.0
 40
0.0
 41
0.0
  0
VERTEX
  8
1
  6
CONTINUOUS
 62
     1
 48
0.229803
  5
34F
 10
14.07242
 20
3.95329
 30
0.0
 40
0.0
 41
0.0
  0
SEQEND
  8
0
  5
350
  0
POLYLINE
  8
1
  6
CONTINUOUS
 62
     1
 48
0.229803
  5
351
 66
     1
 10
0.0
 20
0.0
 30
0.0
 70
   128
  0
VERTEX
  8
1
  6
CONTINUOUS
 62
     1
 48
0.229803
  5
352
 10
14.07242
 20
2.95329
 30
0.0
 40
0.0
 41
0.0
  0
VERTEX
  8
1
  6
CONTINUOUS
 62
     1
 48
0.229803
  5
353
 10
16.32242
 20
2.95329
 30
0.0
 40
0.0
 41
0.0
  0
SEQEND
  8
0
  5
354
  0
POLYLINE
  8
1
  6
CONTINUOUS
 62
   134
 48
0.229803
  5
355
 66
     1
 10
0.0
 20
0.0
 30
0.0
 70
   128
  0
VERTEX
  8
1
  6
CONTINUOUS
 62
   134
 48
0.229803
  5
356
 10
13.69742
 20
5.32829
 30
0.0
 40
0.0
 41
0.0
  0
VERTEX
  8
1
  6
CONTINUOUS
 62
   134
 48
0.229803
  5
357
 10
13.69742
 20
5.57829
 30
0.0
 40
0.0
 41
0.0
  0
VERTEX
  8
1
  6
CONTINUOUS
 62
   134
 48
0.229803
  5
358
 10
16.69742
 20
5.57829
 30
0.0
 40
0.0
 41
0.0
  0
VERTEX
  8
1
  6
CONTINUOUS
 62
   134
 48
0.229803
  5
359
 10
16.69742
 20
5.32829
 30
0.0
 40
0.0
 41
0.0
  0
VERTEX
  8
1
  6
CONTINUOUS
 62
   134
 48
0.229803
  5
35A
 10
13.69742
 20
5.32829
 30
0.0
 40
0.0
 41
0.0
  0
SEQEND
  8
0
  5
35B
  0
POLYLINE
  8
1
  6
CONTINUOUS
 62
   134
 48
0.229803
  5
35C
 66
     1
 10
0.0
 20
0.0
 30
0.0
 70
   128
  0
VERTEX
  8
1
  6
CONTINUOUS
 62
   134
 48
0.229803
  5
35D
 10
13.69742
 20
5.84829
 30
0.0
 40
0.0
 41
0.0
  0
VERTEX
  8
1
  6
CONTINUOUS
 62
   134
 48
0.229803
  5
35E
 10
13.69742
 20
6.09829
 30
0.0
 40
0.0
 41
0.0
  0
VERTEX
  8
1
  6
CONTINUOUS
 62
   134
 48
0.229803
  5
35F
 10
16.69742
 20
6.09829
 30
0.0
 40
0.0
 41
0.0
  0
VERTEX
  8
1
  6
CONTINUOUS
 62
   134
 48
0.229803
  5
360
 10
16.69742
 20
5.84829
 30
0.0
 40
0.0
 41
0.0
  0
VERTEX
  8
1
  6
CONTINUOUS
 62
   134
 48
0.229803
  5
361
 10
13.69742
 20
5.84829
 30
0.0
 40
0.0
 41
0.0
  0
SEQEND
  8
0
  5
362
  0
POLYLINE
  8
1
  6
CONTINUOUS
 62
    14
 48
0.229803
  5
363
 66
     1
 10
0.0
 20
0.0
 30
0.0
 70
   128
  0
VERTEX
  8
1
  6
CONTINUOUS
 62
    14
 48
0.229803
  5
364
 10
11.509918
 20
10.32829
 30
0.0
 40
0.0
 41
0.0
  0
VERTEX
  8
1
  6
CONTINUOUS
 62
    14
 48
0.229803
  5
365
 10
11.509918
 20
10.32829
 30
0.0
 40
0.0
 41
0.0
  0
SEQEND
  8
0
  5
366
  0
ENDSEC
  0
EOF
