  0
SECTION
  2
HEADER
  9
$ACADVER
  1
AC1009
  9
$INSBASE
 10
0.0
 20
0.0
 30
0.0
  9
$EXTMIN
 10
23.558241
 20
4.572809
 30
0.0
  9
$EXTMAX
 10
39.143241
 20
14.83581
 30
0.0
  9
$LIMMIN
 10
0.0
 20
0.0
  9
$LIMMAX
 10
0.0
 20
0.0
  9
$ORTHOMODE
 70
     0
  9
$REGENMODE
 70
     1
  9
$FILLMODE
 70
     1
  9
$QTEXTMODE
 70
     0
  9
$MIRRTEXT
 70
     1
  9
$DRAGMODE
 70
     2
  9
$LTSCALE
 40
1.0
  9
$OSMODE
 70
     0
  9
$ATTMODE
 70
     1
  9
$TEXTSIZE
 40
0.2
  9
$TRACEWID
 40
0.05
  9
$TEXTSTYLE
  7
STANDARD
  9
$CLAYER
  8
0
  9
$CELTYPE
  6
CONTINUOUS
  9
$CECOLOR
 62
   256
  9
$DIMSCALE
 40
1.0
  9
$DIMASZ
 40
0.18
  9
$DIMEXO
 40
0.0625
  9
$DIMDLI
 40
0.38
  9
$DIMRND
 40
0.0
  9
$DIMDLE
 40
0.0
  9
$DIMEXE
 40
0.18
  9
$DIMTP
 40
0.0
  9
$DIMTM
 40
0.0
  9
$DIMTXT
 40
0.18
  9
$DIMCEN
 40
0.09
  9
$DIMTSZ
 40
0.0
  9
$DIMTOL
 70
     0
  9
$DIMLIM
 70
     0
  9
$DIMTIH
 70
     1
  9
$DIMTOH
 70
     1
  9
$DIMSE1
 70
     0
  9
$DIMSE2
 70
     0
  9
$DIMTAD
 70
     0
  9
$DIMZIN
 70
     0
  9
$DIMBLK
  1

  9
$DIMASO
 70
     1
  9
$DIMSHO
 70
     1
  9
$DIMPOST
  1

  9
$DIMAPOST
  1

  9
$DIMALT
 70
     0
  9
$DIMALTD
 70
     2
  9
$DIMALTF
 40
25.4
  9
$DIMLFAC
 40
1.0
  9
$DIMTOFL
 70
     0
  9
$DIMTVP
 40
0.0
  9
$DIMTIX
 70
     0
  9
$DIMSOXD
 70
     0
  9
$DIMSAH
 70
     0
  9
$DIMBLK1
  1

  9
$DIMBLK2
  1

  9
$DIMSTYLE
  2
STANDARD
  9
$DIMCLRD
 70
     0
  9
$DIMCLRE
 70
     0
  9
$DIMCLRT
 70
     0
  9
$DIMTFAC
 40
1.0
  9
$DIMGAP
 40
0.09
  9
$LUNITS
 70
     2
  9
$LUPREC
 70
     4
  9
$AXISMODE
 70
     0
  9
$AXISUNIT
 10
0.0
 20
0.0
  9
$SKETCHINC
 40
0.1
  9
$FILLETRAD
 40
0.0
  9
$AUNITS
 70
     0
  9
$AUPREC
 70
     0
  9
$MENU
  1
acad
  9
$ELEVATION
 40
0.0
  9
$PELEVATION
 40
0.0
  9
$THICKNESS
 40
0.0
  9
$LIMCHECK
 70
     0
  9
$BLIPMODE
 70
     1
  9
$CHAMFERA
 40
0.0
  9
$CHAMFERB
 40
0.0
  9
$SKPOLY
 70
     0
  9
$TDCREATE
 40
0.000000000
  9
$TDUPDATE
 40
0.000000000
  9
$TDINDWG
 40
0.0000000000
  9
$TDUSRTIMER
 40
0.0000000000
  9
$USRTIMER
 70
     1
  9
$ANGBASE
 50
0.0
  9
$ANGDIR
 70
     0
  9
$PDMODE
 70
     0
  9
$PDSIZE
 40
0.0
  9
$PLINEWID
 40
0.0
  9
$COORDS
 70
     0
  9
$SPLFRAME
 70
     0
  9
$SPLINETYPE
 70
     6
  9
$SPLINESEGS
 70
     8
  9
$ATTDIA
 70
     0
  9
$ATTREQ
 70
     1
  9
$HANDLING
 70
     1
  9
$HANDSEED
  5
1AF
  9
$SURFTAB1
 70
     6
  9
$SURFTAB2
 70
     6
  9
$SURFTYPE
 70
     6
  9
$SURFU
 70
     6
  9
$SURFV
 70
     6
  9
$UCSNAME
  2

  9
$UCSORG
 10
0.0
 20
0.0
 30
0.0
  9
$UCSXDIR
 10
1.0
 20
0.0
 30
0.0
  9
$UCSYDIR
 10
0.0
 20
1.0
 30
0.0
  9
$PUCSNAME
  2

  9
$PUCSORG
 10
0.0
 20
0.0
 30
0.0
  9
$PUCSXDIR
 10
1.0
 20
0.0
 30
0.0
  9
$PUCSYDIR
 10
0.0
 20
1.0
 30
0.0
  9
$USERI1
 70
     0
  9
$USERI2
 70
     0
  9
$USERI3
 70
     0
  9
$USERI4
 70
     0
  9
$USERI5
 70
     0
  9
$USERR1
 40
0.0
  9
$USERR2
 40
0.0
  9
$USERR3
 40
0.0
  9
$USERR4
 40
0.0
  9
$USERR5
 40
0.0
  9
$WORLDVIEW
 70
     1
  9
$SHADEDGE
 70
     3
  9
$SHADEDIF
 70
    70
  9
$TILEMODE
 70
     1
  9
$MAXACTVP
 70
    16
  9
$PINSBASE
 10
0.0
 20
0.0
 30
0.0
  9
$PLIMCHECK
 70
     0
  9
$PEXTMIN
 10
1.000000E+20
 20
1.000000E+20
 30
1.000000E+20
  9
$PEXTMAX
 10
-1.000000E+20
 20
-1.000000E+20
 30
-1.000000E+20
  9
$PLIMMIN
 10
0.0
 20
0.0
  9
$PLIMMAX
 10
12.0
 20
9.0
  9
$UNITMODE
 70
     0
  9
$VISRETAIN
 70
     0
  9
$PLINEGEN
 70
     0
  9
$PSLTSCALE
 70
     0
  9
$TREEDEPTH
 70
  3020
  9
$DWGCODEPAGE
  3
dos850
  0
ENDSEC
  0
SECTION
  2
TABLES
  0
TABLE
  2
VPORT
 70
     2
  0
VPORT
  2
*ACTIVE
 70
     0
 10
0.0
 20
0.0
 11
1.0
 21
1.0
 12
6.591288
 22
4.579184
 13
0.0
 23
0.0
 14
1.0
 24
1.0
 15
0.0
 25
0.0
 16
0.0
 26
0.0
 36
1.0
 17
0.0
 27
0.0
 37
0.0
 40
9.158369
 41
0.688564
 42
50.0
 43
0.0
 44
0.0
 50
0.0
 51
0.0
 71
     0
 72
   100
 73
     1
 74
     1
 75
     0
 76
     0
 77
     0
 78
     0
  0
VPORT
  2
DCADVPORT
 70
     0
 10
23.558241
 20
4.572809
 11
39.143241
 21
14.83581
 12
6.21
 22
9.02
 13
0.0
 23
0.0
 14
1.0
 24
1.0
 15
0.0
 25
0.0
 16
0.0
 26
0.0
 36
1.0
 17
0.0
 27
0.0
 37
0.0
 40
18.04
 41
0.688564
 42
50.0
 43
1.0
 44
1.0
 50
0.0
 51
0.0
 71
     0
 72
   100
 73
     1
 74
     1
 75
     0
 76
     0
 77
     0
 78
     0
  0
ENDTAB
  0
TABLE
  2
LTYPE
 70
    13
  0
LTYPE
  2
CONTINUOUS
 70
     0
  3
Solid line
 72
    65
 73
     0
 40
0.0
  0
LTYPE
  2
CONTINUOUS
 70
     0
  3
Solid line
 72
    65
 73
     0
 40
0.0
  0
LTYPE
  2
BORDER
 70
    64
  3
__ __ . __ __ . __ __ . __ __ . __ __ . __ __ .
 72
    65
 73
     6
 40
1.75
 49
0.5
 49
-0.25
 49
0.5
 49
-0.25
 49
0.0
 49
-0.25
  0
LTYPE
  2
BORDER2
 70
    64
  3
__.__.__.__.__.__.__.__.__.__.__.__.__.__.__.__
 72
    65
 73
     6
 40
0.875
 49
0.25
 49
-0.125
 49
0.25
 49
-0.125
 49
0.0
 49
-0.125
  0
LTYPE
  2
CENTER
 70
    64
  3
____ _ ____ _ ____ _ ____ _ ____ _ ____ _ ____ 
 72
    65
 73
     4
 40
2.0
 49
1.25
 49
-0.25
 49
0.25
 49
-0.25
  0
LTYPE
  2
DASHDOT
 70
    64
  3
__ . __ . __ . __ . __ . __ . __ . __ . __ . __
 72
    65
 73
     4
 40
1.0
 49
0.5
 49
-0.25
 49
0.0
 49
-0.25
  0
LTYPE
  2
DASHDOT2
 70
    64
  3
_._._._._._._._._._._._._._._._._._._._._._._._
 72
    65
 73
     4
 40
0.5
 49
0.25
 49
-0.125
 49
0.0
 49
-0.125
  0
LTYPE
  2
DASHED
 70
    64
  3
__ __ __ __ __ __ __ __ __ __ __ __ __ __ __ __
 72
    65
 73
     2
 40
0.75
 49
0.5
 49
-0.25
  0
LTYPE
  2
DIVIDE
 70
    64
  3
____ . . ____ . . ____ . . ____ . . ____ . . __
 72
    65
 73
     6
 40
1.25
 49
0.5
 49
-0.25
 49
0.0
 49
-0.25
 49
0.0
 49
-0.25
  0
LTYPE
  2
DIVIDE2
 70
    64
  3
__..__..__..__..__..__..__..__..__..__..__..__.
 72
    65
 73
     6
 40
0.625
 49
0.25
 49
-0.125
 49
0.0
 49
-0.125
 49
0.0
 49
-0.125
  0
LTYPE
  2
DOT
 70
    64
  3
. . . . . . . . . . . . . . . . . . . . . . . .
 72
    65
 73
     2
 40
0.25
 49
0.0
 49
-0.25
  0
LTYPE
  2
HIDDEN
 70
    64
  3
__ __ __ __ __ __ __ __ __ __ __ __ __ __ __ __
 72
    65
 73
     2
 40
0.375
 49
0.25
 49
-0.125
  0
LTYPE
  2
PHANTOM
 70
    64
  3
______  __  __  ______  __  __  ______  __  __ 
 72
    65
 73
     6
 40
2.5
 49
1.25
 49
-0.25
 49
0.25
 49
-0.25
 49
0.25
 49
-0.25
  0
ENDTAB
  0
TABLE
  2
LAYER
 70
     7
  0
LAYER
  2
0
 70
     0
 62
     7
  6
CONTINUOUS
  0
LAYER
  2
1
 70
     0
 62
   250
  6
CONTINUOUS
  0
LAYER
  2
2
 70
     0
 62
   250
  6
CONTINUOUS
  0
LAYER
  2
3
 70
     0
 62
   250
  6
CONTINUOUS
  0
LAYER
  2
4
 70
     0
 62
   250
  6
CONTINUOUS
  0
LAYER
  2
6
 70
     0
 62
   250
  6
CONTINUOUS
  0
LAYER
  2
7
 70
     0
 62
   250
  6
CONTINUOUS
  0
ENDTAB
  0
TABLE
  2
STYLE
 70
     2
  0
STYLE
  2
STANDARD
 70
     0
 40
0.0
 41
1.0
 50
0.0
 71
     0
 42
0.0
  3
txt
  4

  0
STYLE
  2
BIGFONT
 70
    64
 40
3.0
 41
1.0
 50
0.0
 71
     0
 42
0.2
  3

  4
BIGFONT
  0
ENDTAB
  0
TABLE
  2
VIEW
 70
     0
  0
ENDTAB
  0
TABLE
  2
UCS
 70
     0
  0
ENDTAB
  0
TABLE
  2
APPID
 70
     1
  0
APPID
  2
ACAD
 70
     0
  0
ENDTAB
  0
TABLE
  2
DIMSTYLE
 70
     1
  0
DIMSTYLE
  2
STANDARD
 70
     0
  3

  4

  5

  6

  7

 40
1.0
 41
0.18
 42
0.0625
 43
0.38
 44
0.18
 45
0.0
 46
0.0
 47
0.0
 48
0.0
140
0.18
141
0.09
142
0.0
143
25.4
144
1.0
145
0.0
146
1.0
147
0.09
 71
     0
 72
     0
 73
     1
 74
     1
 75
     0
 76
     0
 77
     0
 78
     0
170
     0
171
     2
172
     0
173
     0
174
     0
175
     0
176
     0
177
     0
178
     0
  0
ENDTAB
  0
ENDSEC
  0
SECTION
  2
BLOCKS
  0
ENDSEC
  0
SECTION
  2
ENTITIES
  0
POLYLINE
  8
1
  6
CONTINUOUS
 62
   250
 48
0.805031
  5
31
 66
     1
 10
0.0
 20
0.0
 30
0.0
 70
   128
  0
VERTEX
  8
1
  6
CONTINUOUS
 62
   250
 48
0.805031
  5
32
 10
25.808241
 20
5.010309
 30
0.0
 40
0.0
 41
0.0
  0
VERTEX
  8
1
  6
CONTINUOUS
 62
   250
 48
0.805031
  5
33
 10
25.558241
 20
5.010309
 30
0.0
 40
0.0
 41
0.0
  0
SEQEND
  8
0
  5
34
  0
POLYLINE
  8
1
  6
CONTINUOUS
 62
   250
 48
0.805031
  5
35
 66
     1
 10
0.0
 20
0.0
 30
0.0
 70
   128
  0
VERTEX
  8
1
  6
CONTINUOUS
 62
   250
 48
0.805031
  5
36
 10
29.058241
 20
5.010309
 30
0.0
 40
0.0
 41
0.0
  0
VERTEX
  8
1
  6
CONTINUOUS
 62
   250
 48
0.805031
  5
37
 10
28.245741
 20
5.010309
 30
0.0
 40
0.0
 41
0.0
  0
SEQEND
  8
0
  5
38
  0
POLYLINE
  8
1
  6
CONTINUOUS
 62
   250
 48
0.805031
  5
39
 66
     1
 10
0.0
 20
0.0
 30
0.0
 70
   128
  0
VERTEX
  8
1
  6
CONTINUOUS
 62
   250
 48
0.805031
  5
3A
 10
28.245741
 20
5.010309
 30
0.0
 40
0.0
 41
0.0
  0
VERTEX
  8
1
  6
CONTINUOUS
 62
   250
 48
0.805031
  5
3B
 10
28.245741
 20
4.572809
 30
0.0
 40
0.0
 41
0.0
  0
SEQEND
  8
0
  5
3C
  0
POLYLINE
  8
1
  6
CONTINUOUS
 62
   250
 48
0.805031
  5
3D
 66
     1
 10
0.0
 20
0.0
 30
0.0
 70
   128
  0
VERTEX
  8
1
  6
CONTINUOUS
 62
   250
 48
0.805031
  5
3E
 10
29.058241
 20
9.197809
 30
0.0
 40
0.0
 41
0.0
  0
VERTEX
  8
1
  6
CONTINUOUS
 62
   250
 48
0.805031
  5
3F
 10
28.383239
 20
9.197809
 30
0.0
 40
0.0
 41
0.0
  0
SEQEND
  8
0
  5
40
  0
POLYLINE
  8
1
  6
CONTINUOUS
 62
   250
 48
0.805031
  5
41
 66
     1
 10
0.0
 20
0.0
 30
0.0
 70
   128
  0
VERTEX
  8
1
  6
CONTINUOUS
 62
   250
 48
0.805031
  5
42
 10
28.933241
 20
9.522809
 30
0.0
 40
0.0
 41
0.0
  0
VERTEX
  8
1
  6
CONTINUOUS
 62
   250
 48
0.805031
  5
43
 10
29.058241
 20
9.522809
 30
0.0
 40
0.0
 41
0.0
  0
VERTEX
  8
1
  6
CONTINUOUS
 62
   250
 48
0.805031
  5
44
 10
29.058241
 20
9.58581
 30
0.0
 40
0.0
 41
0.0
  0
VERTEX
  8
1
  6
CONTINUOUS
 62
   250
 48
0.805031
  5
45
 10
29.668242
 20
9.58581
 30
0.0
 40
0.0
 41
0.0
  0
SEQEND
  8
0
  5
46
  0
POLYLINE
  8
1
  6
CONTINUOUS
 62
   250
 48
0.805031
  5
47
 66
     1
 10
0.0
 20
0.0
 30
0.0
 70
   128
  0
VERTEX
  8
1
  6
CONTINUOUS
 62
   250
 48
0.805031
  5
48
 10
28.933241
 20
9.622809
 30
0.0
 40
0.0
 41
0.0
  0
VERTEX
  8
1
  6
CONTINUOUS
 62
   250
 48
0.805031
  5
49
 10
28.78324
 20
9.772809
 30
0.0
 40
0.0
 41
0.0
  0
SEQEND
  8
0
  5
4A
  0
POLYLINE
  8
1
  6
CONTINUOUS
 62
   250
 48
0.805031
  5
4B
 66
     1
 10
0.0
 20
0.0
 30
0.0
 70
   128
  0
VERTEX
  8
1
  6
CONTINUOUS
 62
   250
 48
0.805031
  5
4C
 10
28.78324
 20
9.772809
 30
0.0
 40
0.0
 41
0.0
  0
VERTEX
  8
1
  6
CONTINUOUS
 62
   250
 48
0.805031
  5
4D
 10
28.53324
 20
9.772809
 30
0.0
 40
0.0
 41
0.0
  0
SEQEND
  8
0
  5
4E
  0
POLYLINE
  8
1
  6
CONTINUOUS
 62
   250
 48
0.805031
  5
4F
 66
     1
 10
0.0
 20
0.0
 30
0.0
 70
   128
  0
VERTEX
  8
1
  6
CONTINUOUS
 62
   250
 48
0.805031
  5
50
 10
28.53324
 20
9.772809
 30
0.0
 40
0.0
 41
0.0
  0
VERTEX
  8
1
  6
CONTINUOUS
 62
   250
 48
0.805031
  5
51
 10
28.383239
 20
9.622809
 30
0.0
 40
0.0
 41
0.0
  0
SEQEND
  8
0
  5
52
  0
POLYLINE
  8
1
  6
CONTINUOUS
 62
   250
 48
0.805031
  5
53
 66
     1
 10
0.0
 20
0.0
 30
0.0
 70
   128
  0
VERTEX
  8
1
  6
CONTINUOUS
 62
   250
 48
0.805031
  5
54
 10
28.383239
 20
9.622809
 30
0.0
 40
0.0
 41
0.0
  0
VERTEX
  8
1
  6
CONTINUOUS
 62
   250
 48
0.805031
  5
55
 10
28.383239
 20
9.197809
 30
0.0
 40
0.0
 41
0.0
  0
SEQEND
  8
0
  5
56
  0
POLYLINE
  8
1
  6
CONTINUOUS
 62
   250
 48
0.805031
  5
57
 66
     1
 10
0.0
 20
0.0
 30
0.0
 70
   128
  0
VERTEX
  8
1
  6
CONTINUOUS
 62
   250
 48
0.805031
  5
58
 10
28.933241
 20
9.622809
 30
0.0
 40
0.0
 41
0.0
  0
VERTEX
  8
1
  6
CONTINUOUS
 62
   250
 48
0.805031
  5
59
 10
28.933241
 20
9.522809
 30
0.0
 40
0.0
 41
0.0
  0
SEQEND
  8
0
  5
5A
  0
POLYLINE
  8
1
  6
CONTINUOUS
 62
   250
 48
0.805031
  5
5B
 66
     1
 10
0.0
 20
0.0
 30
0.0
 70
   128
  0
VERTEX
  8
1
  6
CONTINUOUS
 62
   250
 48
0.805031
  5
5C
 10
29.668242
 20
9.58581
 30
0.0
 40
0.0
 41
0.0
  0
VERTEX
  8
1
  6
CONTINUOUS
 62
   250
 48
0.805031
  5
5D
 10
29.668242
 20
9.197811
 30
0.0
 40
0.0
 41
0.0
  0
SEQEND
  8
0
  5
5E
  0
POLYLINE
  8
1
  6
CONTINUOUS
 62
   250
 48
0.805031
  5
5F
 66
     1
 10
0.0
 20
0.0
 30
0.0
 70
   128
  0
VERTEX
  8
1
  6
CONTINUOUS
 62
   250
 48
0.805031
  5
60
 10
29.668242
 20
9.197811
 30
0.0
 40
0.0
 41
0.0
  0
VERTEX
  8
1
  6
CONTINUOUS
 62
   250
 48
0.805031
  5
61
 10
29.393241
 20
9.197811
 30
0.0
 40
0.0
 41
0.0
  0
SEQEND
  8
0
  5
62
  0
POLYLINE
  8
1
  6
CONTINUOUS
 62
   250
 48
0.805031
  5
63
 66
     1
 10
0.0
 20
0.0
 30
0.0
 70
   128
  0
VERTEX
  8
1
  6
CONTINUOUS
 62
   250
 48
0.805031
  5
64
 10
29.393241
 20
8.74781
 30
0.0
 40
0.0
 41
0.0
  0
VERTEX
  8
1
  6
CONTINUOUS
 62
   250
 48
0.805031
  5
65
 10
29.393241
 20
8.74781
 30
0.0
 40
0.0
 41
0.0
  0
SEQEND
  8
0
  5
66
  0
POLYLINE
  8
1
  6
CONTINUOUS
 62
   250
 48
0.805031
  5
67
 66
     1
 10
0.0
 20
0.0
 30
0.0
 70
   128
  0
VERTEX
  8
1
  6
CONTINUOUS
 62
   250
 48
0.805031
  5
68
 10
29.393241
 20
8.74781
 30
0.0
 40
0.0
 41
0.0
  0
VERTEX
  8
1
  6
CONTINUOUS
 62
   250
 48
0.805031
  5
69
 10
29.393241
 20
9.197811
 30
0.0
 40
0.0
 41
0.0
  0
SEQEND
  8
0
  5
6A
  0
POLYLINE
  8
1
  6
CONTINUOUS
 62
   250
 48
0.805031
  5
6B
 66
     1
 10
0.0
 20
0.0
 30
0.0
 70
   128
  0
VERTEX
  8
1
  6
CONTINUOUS
 62
   250
 48
0.805031
  5
6C
 10
30.618241
 20
9.58581
 30
0.0
 40
0.0
 41
0.0
  0
VERTEX
  8
1
  6
CONTINUOUS
 62
   250
 48
0.805031
  5
6D
 10
30.618241
 20
9.19781
 30
0.0
 40
0.0
 41
0.0
  0
SEQEND
  8
0
  5
6E
  0
POLYLINE
  8
1
  6
CONTINUOUS
 62
   250
 48
0.805031
  5
6F
 66
     1
 10
0.0
 20
0.0
 30
0.0
 70
   128
  0
VERTEX
  8
1
  6
CONTINUOUS
 62
   250
 48
0.805031
  5
70
 10
30.618241
 20
9.58581
 30
0.0
 40
0.0
 41
0.0
  0
VERTEX
  8
1
  6
CONTINUOUS
 62
   250
 48
0.805031
  5
71
 10
31.618241
 20
9.58581
 30
0.0
 40
0.0
 41
0.0
  0
VERTEX
  8
1
  6
CONTINUOUS
 62
   250
 48
0.805031
  5
72
 10
31.618241
 20
9.19781
 30
0.0
 40
0.0
 41
0.0
  0
SEQEND
  8
0
  5
73
  0
POLYLINE
  8
1
  6
CONTINUOUS
 62
   250
 48
0.805031
  5
74
 66
     1
 10
0.0
 20
0.0
 30
0.0
 70
   128
  0
VERTEX
  8
1
  6
CONTINUOUS
 62
   250
 48
0.805031
  5
75
 10
30.618241
 20
9.19781
 30
0.0
 40
0.0
 41
0.0
  0
VERTEX
  8
1
  6
CONTINUOUS
 62
   250
 48
0.805031
  5
76
 10
30.868241
 20
9.19781
 30
0.0
 40
0.0
 41
0.0
  0
SEQEND
  8
0
  5
77
  0
POLYLINE
  8
1
  6
CONTINUOUS
 62
   250
 48
0.805031
  5
78
 66
     1
 10
0.0
 20
0.0
 30
0.0
 70
   128
  0
VERTEX
  8
1
  6
CONTINUOUS
 62
   250
 48
0.805031
  5
79
 10
30.868241
 20
9.19781
 30
0.0
 40
0.0
 41
0.0
  0
VERTEX
  8
1
  6
CONTINUOUS
 62
   250
 48
0.805031
  5
7A
 10
30.868241
 20
8.74781
 30
0.0
 40
0.0
 41
0.0
  0
VERTEX
  8
1
  6
CONTINUOUS
 62
   250
 48
0.805031
  5
7B
 10
29.393241
 20
8.74781
 30
0.0
 40
0.0
 41
0.0
  0
SEQEND
  8
0
  5
7C
  0
POLYLINE
  8
1
  6
CONTINUOUS
 62
   250
 48
0.805031
  5
7D
 66
     1
 10
0.0
 20
0.0
 30
0.0
 70
   128
  0
VERTEX
  8
1
  6
CONTINUOUS
 62
   250
 48
0.805031
  5
7E
 10
31.618241
 20
9.19781
 30
0.0
 40
0.0
 41
0.0
  0
VERTEX
  8
1
  6
CONTINUOUS
 62
   250
 48
0.805031
  5
7F
 10
31.293242
 20
9.19781
 30
0.0
 40
0.0
 41
0.0
  0
SEQEND
  8
0
  5
80
  0
POLYLINE
  8
1
  6
CONTINUOUS
 62
   250
 48
0.805031
  5
81
 66
     1
 10
0.0
 20
0.0
 30
0.0
 70
   128
  0
VERTEX
  8
1
  6
CONTINUOUS
 62
   250
 48
0.805031
  5
82
 10
31.293242
 20
9.19781
 30
0.0
 40
0.0
 41
0.0
  0
VERTEX
  8
1
  6
CONTINUOUS
 62
   250
 48
0.805031
  5
83
 10
31.293242
 20
5.01031
 30
0.0
 40
0.0
 41
0.0
  0
SEQEND
  8
0
  5
84
  0
POLYLINE
  8
1
  6
CONTINUOUS
 62
   250
 48
0.805031
  5
85
 66
     1
 10
0.0
 20
0.0
 30
0.0
 70
   128
  0
VERTEX
  8
1
  6
CONTINUOUS
 62
   250
 48
0.805031
  5
86
 10
31.293242
 20
5.01031
 30
0.0
 40
0.0
 41
0.0
  0
VERTEX
  8
1
  6
CONTINUOUS
 62
   250
 48
0.805031
  5
87
 10
32.105742
 20
5.01031
 30
0.0
 40
0.0
 41
0.0
  0
SEQEND
  8
0
  5
88
  0
POLYLINE
  8
1
  6
CONTINUOUS
 62
   250
 48
0.805031
  5
89
 66
     1
 10
0.0
 20
0.0
 30
0.0
 70
   128
  0
VERTEX
  8
1
  6
CONTINUOUS
 62
   250
 48
0.805031
  5
8A
 10
32.105742
 20
5.01031
 30
0.0
 40
0.0
 41
0.0
  0
VERTEX
  8
1
  6
CONTINUOUS
 62
   250
 48
0.805031
  5
8B
 10
32.105742
 20
4.57281
 30
0.0
 40
0.0
 41
0.0
  0
SEQEND
  8
0
  5
8C
  0
POLYLINE
  8
1
  6
CONTINUOUS
 62
   250
 48
0.805031
  5
8D
 66
     1
 10
0.0
 20
0.0
 30
0.0
 70
   128
  0
VERTEX
  8
1
  6
CONTINUOUS
 62
   250
 48
0.805031
  5
8E
 10
29.058241
 20
5.010309
 30
0.0
 40
0.0
 41
0.0
  0
VERTEX
  8
1
  6
CONTINUOUS
 62
   250
 48
0.805031
  5
8F
 10
29.058241
 20
9.197809
 30
0.0
 40
0.0
 41
0.0
  0
SEQEND
  8
0
  5
90
  0
POLYLINE
  8
1
  6
CONTINUOUS
 62
   250
 48
0.805031
  5
91
 66
     1
 10
0.0
 20
0.0
 30
0.0
 70
   128
  0
VERTEX
  8
1
  6
CONTINUOUS
 62
   250
 48
0.805031
  5
92
 10
29.058241
 20
6.91081
 30
0.0
 40
0.0
 41
0.0
  0
VERTEX
  8
1
  6
CONTINUOUS
 62
   250
 48
0.805031
  5
93
 10
31.293239
 20
6.91081
 30
0.0
 40
0.0
 41
0.0
  0
SEQEND
  8
0
  5
94
  0
CIRCLE
  8
1
  6
CONTINUOUS
 62
   250
 48
0.805031
  5
95
 10
-30.143241
 20
13.185809
 30
0.0
 40
1.574999
210
0.0
220
0.0
230
-1.0
  0
CIRCLE
  8
1
  6
CONTINUOUS
 62
   250
 48
0.805031
  5
96
 10
-30.143241
 20
13.185809
 30
0.0
 40
0.3125
210
0.0
220
0.0
230
-1.0
  0
POLYLINE
  8
1
  6
CONTINUOUS
 62
   250
 48
0.805031
  5
97
 66
     1
 10
0.0
 20
0.0
 30
0.0
 70
   128
  0
VERTEX
  8
1
  6
CONTINUOUS
 62
   250
 48
0.805031
  5
98
 10
28.668242
 20
14.83581
 30
0.0
 40
0.0
 41
0.0
  0
VERTEX
  8
1
  6
CONTINUOUS
 62
   250
 48
0.805031
  5
99
 10
28.418242
 20
14.58581
 30
0.0
 40
0.0
 41
0.0
  0
SEQEND
  8
0
  5
9A
  0
POLYLINE
  8
1
  6
CONTINUOUS
 62
   250
 48
0.805031
  5
9B
 66
     1
 10
0.0
 20
0.0
 30
0.0
 70
   128
  0
VERTEX
  8
1
  6
CONTINUOUS
 62
   250
 48
0.805031
  5
9C
 10
28.418242
 20
14.58581
 30
0.0
 40
0.0
 41
0.0
  0
VERTEX
  8
1
  6
CONTINUOUS
 62
   250
 48
0.805031
  5
9D
 10
28.418242
 20
9.58581
 30
0.0
 40
0.0
 41
0.0
  0
SEQEND
  8
0
  5
9E
  0
POLYLINE
  8
1
  6
CONTINUOUS
 62
   250
 48
0.805031
  5
9F
 66
     1
 10
0.0
 20
0.0
 30
0.0
 70
   128
  0
VERTEX
  8
1
  6
CONTINUOUS
 62
   250
 48
0.805031
  5
A0
 10
28.668242
 20
14.83581
 30
0.0
 40
0.0
 41
0.0
  0
VERTEX
  8
1
  6
CONTINUOUS
 62
   250
 48
0.805031
  5
A1
 10
31.618241
 20
14.83581
 30
0.0
 40
0.0
 41
0.0
  0
SEQEND
  8
0
  5
A2
  0
POLYLINE
  8
1
  6
CONTINUOUS
 62
   250
 48
0.805031
  5
A3
 66
     1
 10
0.0
 20
0.0
 30
0.0
 70
   128
  0
VERTEX
  8
1
  6
CONTINUOUS
 62
   250
 48
0.805031
  5
A4
 10
31.618241
 20
14.83581
 30
0.0
 40
0.0
 41
0.0
  0
VERTEX
  8
1
  6
CONTINUOUS
 62
   250
 48
0.805031
  5
A5
 10
31.868241
 20
14.58581
 30
0.0
 40
0.0
 41
0.0
  0
SEQEND
  8
0
  5
A6
  0
POLYLINE
  8
1
  6
CONTINUOUS
 62
   250
 48
0.805031
  5
A7
 66
     1
 10
0.0
 20
0.0
 30
0.0
 70
   128
  0
VERTEX
  8
1
  6
CONTINUOUS
 62
   250
 48
0.805031
  5
A8
 10
31.868241
 20
14.58581
 30
0.0
 40
0.0
 41
0.0
  0
VERTEX
  8
1
  6
CONTINUOUS
 62
   250
 48
0.805031
  5
A9
 10
31.868241
 20
9.58581
 30
0.0
 40
0.0
 41
0.0
  0
SEQEND
  8
0
  5
AA
  0
POLYLINE
  8
1
  6
CONTINUOUS
 62
   250
 48
0.805031
  5
AB
 66
     1
 10
0.0
 20
0.0
 30
0.0
 70
   128
  0
VERTEX
  8
1
  6
CONTINUOUS
 62
   250
 48
0.805031
  5
AC
 10
31.618241
 20
9.58581
 30
0.0
 40
0.0
 41
0.0
  0
VERTEX
  8
1
  6
CONTINUOUS
 62
   250
 48
0.805031
  5
AD
 10
31.868241
 20
9.58581
 30
0.0
 40
0.0
 41
0.0
  0
SEQEND
  8
0
  5
AE
  0
POLYLINE
  8
2
  6
CONTINUOUS
 62
    14
 48
0.805031
  5
AF
 66
     1
 10
0.0
 20
0.0
 30
0.0
 70
   128
  0
VERTEX
  8
2
  6
CONTINUOUS
 62
    14
 48
0.805031
  5
B0
 10
28.643241
 20
10.08581
 30
0.0
 40
0.0
 41
0.0
  0
VERTEX
  8
2
  6
CONTINUOUS
 62
    14
 48
0.805031
  5
B1
 10
28.643241
 20
11.58581
 30
0.0
 40
0.0
 41
0.0
  0
SEQEND
  8
0
  5
B2
  0
POLYLINE
  8
2
  6
CONTINUOUS
 62
    14
 48
0.805031
  5
B3
 66
     1
 10
0.0
 20
0.0
 30
0.0
 70
   128
  0
VERTEX
  8
2
  6
CONTINUOUS
 62
    14
 48
0.805031
  5
B4
 10
31.643241
 20
11.58581
 30
0.0
 40
0.0
 41
0.0
  0
VERTEX
  8
2
  6
CONTINUOUS
 62
    14
 48
0.805031
  5
B5
 10
31.643241
 20
10.08581
 30
0.0
 40
0.0
 41
0.0
  0
SEQEND
  8
0
  5
B6
  0
POLYLINE
  8
2
  6
CONTINUOUS
 62
    14
 48
0.805031
  5
B7
 66
     1
 10
0.0
 20
0.0
 30
0.0
 70
   128
  0
VERTEX
  8
2
  6
CONTINUOUS
 62
    14
 48
0.805031
  5
B8
 10
29.268241
 20
11.08581
 30
0.0
 40
0.0
 41
0.0
  0
VERTEX
  8
2
  6
CONTINUOUS
 62
    14
 48
0.805031
  5
B9
 10
31.018241
 20
11.08581
 30
0.0
 40
0.0
 41
0.0
  0
SEQEND
  8
0
  5
BA
  0
POLYLINE
  8
7
  6
CONTINUOUS
 62
   214
 48
0.805031
  5
BB
 66
     1
 10
0.0
 20
0.0
 30
0.0
 70
   128
  0
VERTEX
  8
7
  6
CONTINUOUS
 62
   214
 48
0.805031
  5
BC
 10
31.018241
 20
12.08581
 30
0.0
 40
0.0
 41
0.0
  0
VERTEX
  8
7
  6
CONTINUOUS
 62
   214
 48
0.805031
  5
BD
 10
29.268241
 20
12.08581
 30
0.0
 40
0.0
 41
0.0
  0
SEQEND
  8
0
  5
BE
  0
POLYLINE
  8
2
  6
CONTINUOUS
 62
    14
 48
0.805031
  5
BF
 66
     1
 10
0.0
 20
0.0
 30
0.0
 70
   128
  0
VERTEX
  8
2
  6
CONTINUOUS
 62
    14
 48
0.805031
  5
C0
 10
28.643241
 20
11.58581
 30
0.0
 40
0.0
 41
0.0
  0
VERTEX
  8
2
  6
CONTINUOUS
 62
    14
 48
0.805031
  5
C1
 10
29.268241
 20
11.58581
 30
0.0
 40
0.0
 41
0.0
  0
SEQEND
  8
0
  5
C2
  0
POLYLINE
  8
2
  6
CONTINUOUS
 62
    14
 48
0.805031
  5
C3
 66
     1
 10
0.0
 20
0.0
 30
0.0
 70
   128
  0
VERTEX
  8
2
  6
CONTINUOUS
 62
    14
 48
0.805031
  5
C4
 10
31.643241
 20
11.58581
 30
0.0
 40
0.0
 41
0.0
  0
VERTEX
  8
2
  6
CONTINUOUS
 62
    14
 48
0.805031
  5
C5
 10
31.018241
 20
11.58581
 30
0.0
 40
0.0
 41
0.0
  0
SEQEND
  8
0
  5
C6
  0
POLYLINE
  8
1
  6
CONTINUOUS
 62
   250
 48
0.805031
  5
C7
 66
     1
 10
0.0
 20
0.0
 30
0.0
 70
   128
  0
VERTEX
  8
1
  6
CONTINUOUS
 62
   250
 48
0.805031
  5
C8
 10
33.258239
 20
4.572809
 30
0.0
 40
0.0
 41
0.0
  0
VERTEX
  8
1
  6
CONTINUOUS
 62
   250
 48
0.805031
  5
C9
 10
33.258239
 20
4.572809
 30
0.0
 40
0.0
 41
0.0
  0
SEQEND
  8
0
  5
CA
  0
POLYLINE
  8
1
  6
CONTINUOUS
 62
   250
 48
0.805031
  5
CB
 66
     1
 10
0.0
 20
0.0
 30
0.0
 70
   128
  0
VERTEX
  8
1
  6
CONTINUOUS
 62
   250
 48
0.805031
  5
CC
 10
25.808241
 20
5.010309
 30
0.0
 40
0.0
 41
0.0
  0
VERTEX
  8
1
  6
CONTINUOUS
 62
   250
 48
0.805031
  5
CD
 10
26.308241
 20
4.572809
 30
0.0
 40
0.0
 41
0.0
  0
VERTEX
  8
1
  6
CONTINUOUS
 62
   250
 48
0.805031
  5
CE
 10
28.245741
 20
4.572809
 30
0.0
 40
0.0
 41
0.0
  0
SEQEND
  8
0
  5
CF
  0
POLYLINE
  8
1
  6
CONTINUOUS
 62
   250
 48
0.805031
  5
D0
 66
     1
 10
0.0
 20
0.0
 30
0.0
 70
   128
  0
VERTEX
  8
1
  6
CONTINUOUS
 62
   250
 48
0.805031
  5
D1
 10
33.258239
 20
4.572809
 30
0.0
 40
0.0
 41
0.0
  0
VERTEX
  8
1
  6
CONTINUOUS
 62
   250
 48
0.805031
  5
D2
 10
32.105742
 20
4.57281
 30
0.0
 40
0.0
 41
0.0
  0
SEQEND
  8
0
  5
D3
  0
POLYLINE
  8
1
  6
CONTINUOUS
 62
   250
 48
0.805031
  5
D4
 66
     1
 10
0.0
 20
0.0
 30
0.0
 70
   128
  0
VERTEX
  8
1
  6
CONTINUOUS
 62
   250
 48
0.805031
  5
D5
 10
28.245741
 20
4.572809
 30
0.0
 40
0.0
 41
0.0
  0
VERTEX
  8
1
  6
CONTINUOUS
 62
   250
 48
0.805031
  5
D6
 10
32.105742
 20
4.57281
 30
0.0
 40
0.0
 41
0.0
  0
SEQEND
  8
0
  5
D7
  0
POLYLINE
  8
2
  6
CONTINUOUS
 62
    14
 48
0.805031
  5
D8
 66
     1
 10
0.0
 20
0.0
 30
0.0
 70
   128
  0
VERTEX
  8
2
  6
CONTINUOUS
 62
    14
 48
0.805031
  5
D9
 10
28.643241
 20
10.08581
 30
0.0
 40
0.0
 41
0.0
  0
VERTEX
  8
2
  6
CONTINUOUS
 62
    14
 48
0.805031
  5
DA
 10
31.643241
 20
10.08581
 30
0.0
 40
0.0
 41
0.0
  0
SEQEND
  8
0
  5
DB
  0
POLYLINE
  8
2
  6
CONTINUOUS
 62
    14
 48
0.805031
  5
DC
 66
     1
 10
0.0
 20
0.0
 30
0.0
 70
   128
  0
VERTEX
  8
2
  6
CONTINUOUS
 62
    14
 48
0.805031
  5
DD
 10
31.643241
 20
10.08581
 30
0.0
 40
0.0
 41
0.0
  0
VERTEX
  8
2
  6
CONTINUOUS
 62
    14
 48
0.805031
  5
DE
 10
31.643241
 20
9.58581
 30
0.0
 40
0.0
 41
0.0
  0
VERTEX
  8
2
  6
CONTINUOUS
 62
    14
 48
0.805031
  5
DF
 10
29.069241
 20
9.58581
 30
0.0
 40
0.0
 41
0.0
  0
VERTEX
  8
2
  6
CONTINUOUS
 62
    14
 48
0.805031
  5
E0
 10
28.643241
 20
10.08581
 30
0.0
 40
0.0
 41
0.0
  0
SEQEND
  8
0
  5
E1
  0
POLYLINE
  8
2
  6
CONTINUOUS
 62
    14
 48
0.805031
  5
E2
 66
     1
 10
0.0
 20
0.0
 30
0.0
 70
   128
  0
VERTEX
  8
2
  6
CONTINUOUS
 62
    14
 48
0.805031
  5
E3
 10
29.668242
 20
9.58581
 30
0.0
 40
0.0
 41
0.0
  0
VERTEX
  8
2
  6
CONTINUOUS
 62
    14
 48
0.805031
  5
E4
 10
29.668242
 20
9.33581
 30
0.0
 40
0.0
 41
0.0
  0
VERTEX
  8
2
  6
CONTINUOUS
 62
    14
 48
0.805031
  5
E5
 10
30.618241
 20
9.33581
 30
0.0
 40
0.0
 41
0.0
  0
VERTEX
  8
2
  6
CONTINUOUS
 62
    14
 48
0.805031
  5
E6
 10
30.618241
 20
9.58581
 30
0.0
 40
0.0
 41
0.0
  0
SEQEND
  8
0
  5
E7
  0
POLYLINE
  8
2
  6
CONTINUOUS
 62
    14
 48
0.805031
  5
E8
 66
     1
 10
0.0
 20
0.0
 30
0.0
 70
   128
  0
VERTEX
  8
2
  6
CONTINUOUS
 62
    14
 48
0.805031
  5
E9
 10
29.268241
 20
11.58581
 30
0.0
 40
0.0
 41
0.0
  0
VERTEX
  8
2
  6
CONTINUOUS
 62
    14
 48
0.805031
  5
EA
 10
29.268241
 20
11.08581
 30
0.0
 40
0.0
 41
0.0
  0
SEQEND
  8
0
  5
EB
  0
POLYLINE
  8
2
  6
CONTINUOUS
 62
    14
 48
0.805031
  5
EC
 66
     1
 10
0.0
 20
0.0
 30
0.0
 70
   128
  0
VERTEX
  8
2
  6
CONTINUOUS
 62
    14
 48
0.805031
  5
ED
 10
31.018241
 20
11.58581
 30
0.0
 40
0.0
 41
0.0
  0
VERTEX
  8
2
  6
CONTINUOUS
 62
    14
 48
0.805031
  5
EE
 10
31.018241
 20
11.08581
 30
0.0
 40
0.0
 41
0.0
  0
SEQEND
  8
0
  5
EF
  0
POLYLINE
  8
7
  6
CONTINUOUS
 62
   214
 48
0.805031
  5
F0
 66
     1
 10
0.0
 20
0.0
 30
0.0
 70
   128
  0
VERTEX
  8
7
  6
CONTINUOUS
 62
   214
 48
0.805031
  5
F1
 10
29.268241
 20
11.58581
 30
0.0
 40
0.0
 41
0.0
  0
VERTEX
  8
7
  6
CONTINUOUS
 62
   214
 48
0.805031
  5
F2
 10
29.393241
 20
11.58581
 30
0.0
 40
0.0
 41
0.0
  0
VERTEX
  8
7
  6
CONTINUOUS
 62
   214
 48
0.805031
  5
F3
 10
29.393241
 20
11.71081
 30
0.0
 40
0.0
 41
0.0
  0
VERTEX
  8
7
  6
CONTINUOUS
 62
   214
 48
0.805031
  5
F4
 10
29.268241
 20
11.71081
 30
0.0
 40
0.0
 41
0.0
  0
VERTEX
  8
7
  6
CONTINUOUS
 62
   214
 48
0.805031
  5
F5
 10
29.268241
 20
12.08581
 30
0.0
 40
0.0
 41
0.0
  0
SEQEND
  8
0
  5
F6
  0
POLYLINE
  8
7
  6
CONTINUOUS
 62
   214
 48
0.805031
  5
F7
 66
     1
 10
0.0
 20
0.0
 30
0.0
 70
   128
  0
VERTEX
  8
7
  6
CONTINUOUS
 62
   214
 48
0.805031
  5
F8
 10
31.018241
 20
11.58581
 30
0.0
 40
0.0
 41
0.0
  0
VERTEX
  8
7
  6
CONTINUOUS
 62
   214
 48
0.805031
  5
F9
 10
30.893241
 20
11.58581
 30
0.0
 40
0.0
 41
0.0
  0
VERTEX
  8
7
  6
CONTINUOUS
 62
   214
 48
0.805031
  5
FA
 10
30.893241
 20
11.71081
 30
0.0
 40
0.0
 41
0.0
  0
VERTEX
  8
7
  6
CONTINUOUS
 62
   214
 48
0.805031
  5
FB
 10
31.018241
 20
11.71081
 30
0.0
 40
0.0
 41
0.0
  0
VERTEX
  8
7
  6
CONTINUOUS
 62
   214
 48
0.805031
  5
FC
 10
31.018241
 20
12.08581
 30
0.0
 40
0.0
 41
0.0
  0
SEQEND
  8
0
  5
FD
  0
POLYLINE
  8
3
  6
CONTINUOUS
 62
    94
 48
0.805031
  5
FE
 66
     1
 10
0.0
 20
0.0
 30
0.0
 70
   128
  0
VERTEX
  8
3
  6
CONTINUOUS
 62
    94
 48
0.805031
  5
FF
 10
29.268241
 20
11.08581
 30
0.0
 40
0.0
 41
0.0
  0
VERTEX
  8
3
  6
CONTINUOUS
 62
    94
 48
0.805031
  5
100
 10
29.018241
 20
11.08581
 30
0.0
 40
0.0
 41
0.0
  0
VERTEX
  8
3
  6
CONTINUOUS
 62
    94
 48
0.805031
  5
101
 10
29.018241
 20
11.58581
 30
0.0
 40
0.0
 41
0.0
  0
VERTEX
  8
3
  6
CONTINUOUS
 62
    94
 48
0.805031
  5
102
 10
29.268241
 20
11.58581
 30
0.0
 40
0.0
 41
0.0
  0
VERTEX
  8
3
  6
CONTINUOUS
 62
    94
 48
0.805031
  5
103
 10
29.268241
 20
11.08581
 30
0.0
 40
0.0
 41
0.0
  0
SEQEND
  8
0
  5
104
  0
POLYLINE
  8
3
  6
CONTINUOUS
 62
    94
 48
0.805031
  5
105
 66
     1
 10
0.0
 20
0.0
 30
0.0
 70
   128
  0
VERTEX
  8
3
  6
CONTINUOUS
 62
    94
 48
0.805031
  5
106
 10
31.018241
 20
11.08581
 30
0.0
 40
0.0
 41
0.0
  0
VERTEX
  8
3
  6
CONTINUOUS
 62
    94
 48
0.805031
  5
107
 10
31.143241
 20
11.08581
 30
0.0
 40
0.0
 41
0.0
  0
VERTEX
  8
3
  6
CONTINUOUS
 62
    94
 48
0.805031
  5
108
 10
31.143241
 20
11.58581
 30
0.0
 40
0.0
 41
0.0
  0
VERTEX
  8
3
  6
CONTINUOUS
 62
    94
 48
0.805031
  5
109
 10
31.018241
 20
11.58581
 30
0.0
 40
0.0
 41
0.0
  0
VERTEX
  8
3
  6
CONTINUOUS
 62
    94
 48
0.805031
  5
10A
 10
31.018241
 20
11.08581
 30
0.0
 40
0.0
 41
0.0
  0
SEQEND
  8
0
  5
10B
  0
POLYLINE
  8
6
  6
CONTINUOUS
 62
   134
 48
0.805031
  5
10C
 66
     1
 10
0.0
 20
0.0
 30
0.0
 70
   128
  0
VERTEX
  8
6
  6
CONTINUOUS
 62
   134
 48
0.805031
  5
10D
 10
28.643241
 20
11.58581
 30
0.0
 40
0.0
 41
0.0
  0
VERTEX
  8
6
  6
CONTINUOUS
 62
   134
 48
0.805031
  5
10E
 10
28.643241
 20
11.71081
 30
0.0
 40
0.0
 41
0.0
  0
VERTEX
  8
6
  6
CONTINUOUS
 62
   134
 48
0.805031
  5
10F
 10
29.393241
 20
11.71081
 30
0.0
 40
0.0
 41
0.0
  0
VERTEX
  8
6
  6
CONTINUOUS
 62
   134
 48
0.805031
  5
110
 10
29.393241
 20
11.58581
 30
0.0
 40
0.0
 41
0.0
  0
VERTEX
  8
6
  6
CONTINUOUS
 62
   134
 48
0.805031
  5
111
 10
28.643241
 20
11.58581
 30
0.0
 40
0.0
 41
0.0
  0
SEQEND
  8
0
  5
112
  0
POLYLINE
  8
6
  6
CONTINUOUS
 62
   134
 48
0.805031
  5
113
 66
     1
 10
0.0
 20
0.0
 30
0.0
 70
   128
  0
VERTEX
  8
6
  6
CONTINUOUS
 62
   134
 48
0.805031
  5
114
 10
31.643241
 20
11.58581
 30
0.0
 40
0.0
 41
0.0
  0
VERTEX
  8
6
  6
CONTINUOUS
 62
   134
 48
0.805031
  5
115
 10
31.643241
 20
11.71081
 30
0.0
 40
0.0
 41
0.0
  0
VERTEX
  8
6
  6
CONTINUOUS
 62
   134
 48
0.805031
  5
116
 10
30.893241
 20
11.71081
 30
0.0
 40
0.0
 41
0.0
  0
VERTEX
  8
6
  6
CONTINUOUS
 62
   134
 48
0.805031
  5
117
 10
30.893241
 20
11.58581
 30
0.0
 40
0.0
 41
0.0
  0
VERTEX
  8
6
  6
CONTINUOUS
 62
   134
 48
0.805031
  5
118
 10
31.643241
 20
11.58581
 30
0.0
 40
0.0
 41
0.0
  0
SEQEND
  8
0
  5
119
  0
CIRCLE
  8
4
  6
CONTINUOUS
 62
   174
 48
0.805031
  5
11A
 10
-29.143241
 20
10.89831
 30
0.0
 40
0.125
210
0.0
220
0.0
230
-1.0
  0
CIRCLE
  8
4
  6
CONTINUOUS
 62
   174
 48
0.805031
  5
11B
 10
-29.143241
 20
10.89831
 30
0.0
 40
0.1875
210
0.0
220
0.0
230
-1.0
  0
ARC
  8
2
  6
CONTINUOUS
 62
    14
 48
0.805031
  5
11C
 10
-30.143241
 20
11.08581
 30
0.0
 40
0.625
 50
180.0
 51
360.0
210
0.0
220
0.0
230
-1.0
  0
CIRCLE
  8
7
  6
CONTINUOUS
 62
   214
 48
0.805031
  5
11D
 10
-30.143241
 20
11.08581
 30
0.0
 40
0.5625
210
0.0
220
0.0
230
-1.0
  0
CIRCLE
  8
4
  6
CONTINUOUS
 62
   174
 48
0.805031
  5
11E
 10
-30.143241
 20
11.08581
 30
0.0
 40
0.5
210
0.0
220
0.0
230
-1.0
  0
CIRCLE
  8
4
  6
CONTINUOUS
 62
   174
 48
0.805031
  5
11F
 10
-30.518241
 20
11.08581
 30
0.0
 40
0.0938
210
0.0
220
0.0
230
-1.0
  0
CIRCLE
  8
4
  6
CONTINUOUS
 62
   174
 48
0.805031
  5
120
 10
-29.768241
 20
11.08581
 30
0.0
 40
0.0935
210
0.0
220
0.0
230
-1.0
  0
CIRCLE
  8
4
  6
CONTINUOUS
 62
   174
 48
0.805031
  5
121
 10
-30.330741
 20
11.410569
 30
0.0
 40
0.093501
210
0.0
220
0.0
230
-1.0
  0
CIRCLE
  8
4
  6
CONTINUOUS
 62
   174
 48
0.805031
  5
122
 10
-29.955741
 20
11.410569
 30
0.0
 40
0.093501
210
0.0
220
0.0
230
-1.0
  0
CIRCLE
  8
4
  6
CONTINUOUS
 62
   174
 48
0.805031
  5
123
 10
-29.955741
 20
10.761051
 30
0.0
 40
0.093501
210
0.0
220
0.0
230
-1.0
  0
CIRCLE
  8
4
  6
CONTINUOUS
 62
   174
 48
0.805031
  5
124
 10
-30.330741
 20
10.761051
 30
0.0
 40
0.093501
210
0.0
220
0.0
230
-1.0
  0
CIRCLE
  8
4
  6
CONTINUOUS
 62
   174
 48
0.805031
  5
125
 10
-30.143241
 20
11.08581
 30
0.0
 40
0.1875
210
0.0
220
0.0
230
-1.0
  0
ARC
  8
7
  6
CONTINUOUS
 62
   214
 48
0.805031
  5
126
 10
-30.143241
 20
11.08581
 30
0.0
 40
0.875
 50
0.0
 51
180.0
210
0.0
220
0.0
230
-1.0
  0
POLYLINE
  8
2
  6
CONTINUOUS
 62
    14
 48
0.805031
  5
127
 66
     1
 10
0.0
 20
0.0
 30
0.0
 70
   128
  0
VERTEX
  8
2
  6
CONTINUOUS
 62
    14
 48
0.805031
  5
128
 10
33.643241
 20
11.58581
 30
0.0
 40
0.0
 41
0.0
  0
VERTEX
  8
2
  6
CONTINUOUS
 62
    14
 48
0.805031
  5
129
 10
38.643241
 20
11.58581
 30
0.0
 40
0.0
 41
0.0
  0
SEQEND
  8
0
  5
12A
  0
POLYLINE
  8
2
  6
CONTINUOUS
 62
    14
 48
0.805031
  5
12B
 66
     1
 10
0.0
 20
0.0
 30
0.0
 70
   128
  0
VERTEX
  8
2
  6
CONTINUOUS
 62
    14
 48
0.805031
  5
12C
 10
33.643241
 20
11.58581
 30
0.0
 40
0.0
 41
0.0
  0
VERTEX
  8
2
  6
CONTINUOUS
 62
    14
 48
0.805031
  5
12D
 10
33.643241
 20
10.08581
 30
0.0
 40
0.0
 41
0.0
  0
VERTEX
  8
2
  6
CONTINUOUS
 62
    14
 48
0.805031
  5
12E
 10
38.643241
 20
10.08581
 30
0.0
 40
0.0
 41
0.0
  0
VERTEX
  8
2
  6
CONTINUOUS
 62
    14
 48
0.805031
  5
12F
 10
38.643241
 20
11.58581
 30
0.0
 40
0.0
 41
0.0
  0
SEQEND
  8
0
  5
130
  0
POLYLINE
  8
2
  6
CONTINUOUS
 62
    14
 48
0.805031
  5
131
 66
     1
 10
0.0
 20
0.0
 30
0.0
 70
   128
  0
VERTEX
  8
2
  6
CONTINUOUS
 62
    14
 48
0.805031
  5
132
 10
33.643241
 20
10.08581
 30
0.0
 40
0.0
 41
0.0
  0
VERTEX
  8
2
  6
CONTINUOUS
 62
    14
 48
0.805031
  5
133
 10
33.643241
 20
9.58581
 30
0.0
 40
0.0
 41
0.0
  0
VERTEX
  8
2
  6
CONTINUOUS
 62
    14
 48
0.805031
  5
134
 10
38.643241
 20
9.58581
 30
0.0
 40
0.0
 41
0.0
  0
VERTEX
  8
2
  6
CONTINUOUS
 62
    14
 48
0.805031
  5
135
 10
38.643241
 20
10.08581
 30
0.0
 40
0.0
 41
0.0
  0
SEQEND
  8
0
  5
136
  0
POLYLINE
  8
2
  6
CONTINUOUS
 62
    14
 48
0.805031
  5
137
 66
     1
 10
0.0
 20
0.0
 30
0.0
 70
   128
  0
VERTEX
  8
2
  6
CONTINUOUS
 62
    14
 48
0.805031
  5
138
 10
33.643241
 20
9.58581
 30
0.0
 40
0.0
 41
0.0
  0
VERTEX
  8
2
  6
CONTINUOUS
 62
    14
 48
0.805031
  5
139
 10
33.643241
 20
9.33581
 30
0.0
 40
0.0
 41
0.0
  0
VERTEX
  8
2
  6
CONTINUOUS
 62
    14
 48
0.805031
  5
13A
 10
38.643241
 20
9.33581
 30
0.0
 40
0.0
 41
0.0
  0
VERTEX
  8
2
  6
CONTINUOUS
 62
    14
 48
0.805031
  5
13B
 10
38.643241
 20
9.58581
 30
0.0
 40
0.0
 41
0.0
  0
SEQEND
  8
0
  5
13C
  0
POLYLINE
  8
2
  6
HIDDEN
 62
    14
 48
0.25
  5
13D
 66
     1
 10
0.0
 20
0.0
 30
0.0
 70
   128
  0
VERTEX
  8
2
  6
HIDDEN
 62
    14
 48
0.25
  5
13E
 10
33.643241
 20
11.58581
 30
0.0
 40
0.0
 41
0.0
  0
VERTEX
  8
2
  6
HIDDEN
 62
    14
 48
0.25
  5
13F
 10
33.643241
 20
11.08581
 30
0.0
 40
0.0
 41
0.0
  0
VERTEX
  8
2
  6
HIDDEN
 62
    14
 48
0.25
  5
140
 10
38.643241
 20
11.08581
 30
0.0
 40
0.0
 41
0.0
  0
SEQEND
  8
0
  5
141
  0
POLYLINE
  8
2
  6
CONTINUOUS
 62
    14
 48
0.25
  5
142
 66
     1
 10
0.0
 20
0.0
 30
0.0
 70
   128
  0
VERTEX
  8
2
  6
CONTINUOUS
 62
    14
 48
0.25
  5
143
 10
26.558241
 20
6.91081
 30
0.0
 40
0.0
 41
0.0
  0
VERTEX
  8
2
  6
CONTINUOUS
 62
    14
 48
0.25
  5
144
 10
26.558241
 20
11.91081
 30
0.0
 40
0.0
 41
0.0
  0
SEQEND
  8
0
  5
145
  0
POLYLINE
  8
2
  6
CONTINUOUS
 62
    14
 48
0.25
  5
146
 66
     1
 10
0.0
 20
0.0
 30
0.0
 70
   128
  0
VERTEX
  8
2
  6
CONTINUOUS
 62
    14
 48
0.25
  5
147
 10
26.558241
 20
6.91081
 30
0.0
 40
0.0
 41
0.0
  0
VERTEX
  8
2
  6
CONTINUOUS
 62
    14
 48
0.25
  5
148
 10
23.558241
 20
6.91081
 30
0.0
 40
0.0
 41
0.0
  0
VERTEX
  8
2
  6
CONTINUOUS
 62
    14
 48
0.25
  5
149
 10
23.558241
 20
11.91081
 30
0.0
 40
0.0
 41
0.0
  0
VERTEX
  8
2
  6
CONTINUOUS
 62
    14
 48
0.25
  5
14A
 10
26.558241
 20
11.91081
 30
0.0
 40
0.0
 41
0.0
  0
SEQEND
  8
0
  5
14B
  0
POLYLINE
  8
2
  6
CONTINUOUS
 62
    14
 48
0.25
  5
14C
 66
     1
 10
0.0
 20
0.0
 30
0.0
 70
   128
  0
VERTEX
  8
2
  6
CONTINUOUS
 62
    14
 48
0.25
  5
14D
 10
23.933241
 20
6.91081
 30
0.0
 40
0.0
 41
0.0
  0
VERTEX
  8
2
  6
CONTINUOUS
 62
    14
 48
0.25
  5
14E
 10
23.933241
 20
6.91081
 30
0.0
 40
0.0
 41
0.0
  0
SEQEND
  8
0
  5
14F
  0
POLYLINE
  8
2
  6
CONTINUOUS
 62
    14
 48
0.25
  5
150
 66
     1
 10
0.0
 20
0.0
 30
0.0
 70
   128
  0
VERTEX
  8
2
  6
CONTINUOUS
 62
    14
 48
0.25
  5
151
 10
24.058241
 20
11.91081
 30
0.0
 40
0.0
 41
0.0
  0
VERTEX
  8
2
  6
CONTINUOUS
 62
    14
 48
0.25
  5
152
 10
23.933241
 20
6.91081
 30
0.0
 40
0.0
 41
0.0
  0
SEQEND
  8
0
  5
153
  0
POLYLINE
  8
2
  6
CONTINUOUS
 62
    14
 48
0.25
  5
154
 66
     1
 10
0.0
 20
0.0
 30
0.0
 70
   128
  0
VERTEX
  8
2
  6
CONTINUOUS
 62
    14
 48
0.25
  5
155
 10
26.183241
 20
11.91081
 30
0.0
 40
0.0
 41
0.0
  0
VERTEX
  8
2
  6
CONTINUOUS
 62
    14
 48
0.25
  5
156
 10
26.183241
 20
11.91081
 30
0.0
 40
0.0
 41
0.0
  0
SEQEND
  8
0
  5
157
  0
POLYLINE
  8
2
  6
CONTINUOUS
 62
    14
 48
0.25
  5
158
 66
     1
 10
0.0
 20
0.0
 30
0.0
 70
   128
  0
VERTEX
  8
2
  6
CONTINUOUS
 62
    14
 48
0.25
  5
159
 10
26.058241
 20
6.91081
 30
0.0
 40
0.0
 41
0.0
  0
VERTEX
  8
2
  6
CONTINUOUS
 62
    14
 48
0.25
  5
15A
 10
26.183241
 20
11.91081
 30
0.0
 40
0.0
 41
0.0
  0
SEQEND
  8
0
  5
15B
  0
POLYLINE
  8
3
  6
CONTINUOUS
 62
    94
 48
0.25
  5
15C
 66
     1
 10
0.0
 20
0.0
 30
0.0
 70
   128
  0
VERTEX
  8
3
  6
CONTINUOUS
 62
    94
 48
0.25
  5
15D
 10
24.183241
 20
6.91081
 30
0.0
 40
0.0
 41
0.0
  0
VERTEX
  8
3
  6
CONTINUOUS
 62
    94
 48
0.25
  5
15E
 10
24.183241
 20
6.91081
 30
0.0
 40
0.0
 41
0.0
  0
SEQEND
  8
0
  5
15F
  0
POLYLINE
  8
3
  6
CONTINUOUS
 62
    94
 48
0.25
  5
160
 66
     1
 10
0.0
 20
0.0
 30
0.0
 70
   128
  0
VERTEX
  8
3
  6
CONTINUOUS
 62
    94
 48
0.25
  5
161
 10
24.183241
 20
11.91081
 30
0.0
 40
0.0
 41
0.0
  0
VERTEX
  8
3
  6
CONTINUOUS
 62
    94
 48
0.25
  5
162
 10
24.183241
 20
6.91081
 30
0.0
 40
0.0
 41
0.0
  0
VERTEX
  8
3
  6
CONTINUOUS
 62
    94
 48
0.25
  5
163
 10
23.933241
 20
6.91081
 30
0.0
 40
0.0
 41
0.0
  0
VERTEX
  8
3
  6
CONTINUOUS
 62
    94
 48
0.25
  5
164
 10
24.058241
 20
11.91081
 30
0.0
 40
0.0
 41
0.0
  0
VERTEX
  8
3
  6
CONTINUOUS
 62
    94
 48
0.25
  5
165
 10
24.183241
 20
11.91081
 30
0.0
 40
0.0
 41
0.0
  0
SEQEND
  8
0
  5
166
  0
POLYLINE
  8
3
  6
CONTINUOUS
 62
    94
 48
0.25
  5
167
 66
     1
 10
0.0
 20
0.0
 30
0.0
 70
   128
  0
VERTEX
  8
3
  6
CONTINUOUS
 62
    94
 48
0.25
  5
168
 10
25.933241
 20
11.91081
 30
0.0
 40
0.0
 41
0.0
  0
VERTEX
  8
3
  6
CONTINUOUS
 62
    94
 48
0.25
  5
169
 10
25.933241
 20
11.91081
 30
0.0
 40
0.0
 41
0.0
  0
SEQEND
  8
0
  5
16A
  0
POLYLINE
  8
3
  6
CONTINUOUS
 62
    94
 48
0.25
  5
16B
 66
     1
 10
0.0
 20
0.0
 30
0.0
 70
   128
  0
VERTEX
  8
3
  6
CONTINUOUS
 62
    94
 48
0.25
  5
16C
 10
25.933241
 20
6.91081
 30
0.0
 40
0.0
 41
0.0
  0
VERTEX
  8
3
  6
CONTINUOUS
 62
    94
 48
0.25
  5
16D
 10
25.933241
 20
11.91081
 30
0.0
 40
0.0
 41
0.0
  0
VERTEX
  8
3
  6
CONTINUOUS
 62
    94
 48
0.25
  5
16E
 10
26.183241
 20
11.91081
 30
0.0
 40
0.0
 41
0.0
  0
VERTEX
  8
3
  6
CONTINUOUS
 62
    94
 48
0.25
  5
16F
 10
26.058241
 20
6.91081
 30
0.0
 40
0.0
 41
0.0
  0
VERTEX
  8
3
  6
CONTINUOUS
 62
    94
 48
0.25
  5
170
 10
25.933241
 20
6.91081
 30
0.0
 40
0.0
 41
0.0
  0
SEQEND
  8
0
  5
171
  0
POLYLINE
  8
7
  6
CONTINUOUS
 62
   214
 48
0.25
  5
172
 66
     1
 10
0.0
 20
0.0
 30
0.0
 70
   128
  0
VERTEX
  8
7
  6
CONTINUOUS
 62
   214
 48
0.25
  5
173
 10
24.183241
 20
12.41081
 30
0.0
 40
0.0
 41
0.0
  0
VERTEX
  8
7
  6
CONTINUOUS
 62
   214
 48
0.25
  5
174
 10
25.933241
 20
12.41081
 30
0.0
 40
0.0
 41
0.0
  0
VERTEX
  8
7
  6
CONTINUOUS
 62
   214
 48
0.25
  5
175
 10
25.933241
 20
6.41081
 30
0.0
 40
0.0
 41
0.0
  0
VERTEX
  8
7
  6
CONTINUOUS
 62
   214
 48
0.25
  5
176
 10
24.183241
 20
6.41081
 30
0.0
 40
0.0
 41
0.0
  0
VERTEX
  8
7
  6
CONTINUOUS
 62
   214
 48
0.25
  5
177
 10
24.183241
 20
12.41081
 30
0.0
 40
0.0
 41
0.0
  0
SEQEND
  8
0
  5
178
  0
POLYLINE
  8
7
  6
CONTINUOUS
 62
   214
 48
0.25
  5
179
 66
     1
 10
0.0
 20
0.0
 30
0.0
 70
   128
  0
VERTEX
  8
7
  6
CONTINUOUS
 62
   214
 48
0.25
  5
17A
 10
33.643241
 20
11.08581
 30
0.0
 40
0.0
 41
0.0
  0
VERTEX
  8
7
  6
CONTINUOUS
 62
   214
 48
0.25
  5
17B
 10
33.143241
 20
11.08581
 30
0.0
 40
0.0
 41
0.0
  0
VERTEX
  8
7
  6
CONTINUOUS
 62
   214
 48
0.25
  5
17C
 10
33.143241
 20
12.08581
 30
0.0
 40
0.0
 41
0.0
  0
VERTEX
  8
7
  6
CONTINUOUS
 62
   214
 48
0.25
  5
17D
 10
39.143241
 20
12.08581
 30
0.0
 40
0.0
 41
0.0
  0
VERTEX
  8
7
  6
CONTINUOUS
 62
   214
 48
0.25
  5
17E
 10
39.143241
 20
11.08581
 30
0.0
 40
0.0
 41
0.0
  0
VERTEX
  8
7
  6
CONTINUOUS
 62
   214
 48
0.25
  5
17F
 10
38.643241
 20
11.08581
 30
0.0
 40
0.0
 41
0.0
  0
SEQEND
  8
0
  5
180
  0
POLYLINE
  8
7
  6
CONTINUOUS
 62
   214
 48
0.25
  5
181
 66
     1
 10
0.0
 20
0.0
 30
0.0
 70
   128
  0
VERTEX
  8
7
  6
CONTINUOUS
 62
   214
 48
0.25
  5
182
 10
38.643241
 20
11.58581
 30
0.0
 40
0.0
 41
0.0
  0
VERTEX
  8
7
  6
CONTINUOUS
 62
   214
 48
0.25
  5
183
 10
39.143241
 20
11.58581
 30
0.0
 40
0.0
 41
0.0
  0
SEQEND
  8
0
  5
184
  0
POLYLINE
  8
7
  6
CONTINUOUS
 62
   214
 48
0.25
  5
185
 66
     1
 10
0.0
 20
0.0
 30
0.0
 70
   128
  0
VERTEX
  8
7
  6
CONTINUOUS
 62
   214
 48
0.25
  5
186
 10
33.643241
 20
11.58581
 30
0.0
 40
0.0
 41
0.0
  0
VERTEX
  8
7
  6
CONTINUOUS
 62
   214
 48
0.25
  5
187
 10
33.143241
 20
11.58581
 30
0.0
 40
0.0
 41
0.0
  0
SEQEND
  8
0
  5
188
  0
POLYLINE
  8
7
  6
CONTINUOUS
 62
   214
 48
0.25
  5
189
 66
     1
 10
0.0
 20
0.0
 30
0.0
 70
   128
  0
VERTEX
  8
7
  6
CONTINUOUS
 62
   214
 48
0.25
  5
18A
 10
33.143241
 20
11.71081
 30
0.0
 40
0.0
 41
0.0
  0
VERTEX
  8
7
  6
CONTINUOUS
 62
   214
 48
0.25
  5
18B
 10
39.143241
 20
11.71081
 30
0.0
 40
0.0
 41
0.0
  0
SEQEND
  8
0
  5
18C
  0
POLYLINE
  8
1
  6
CONTINUOUS
 62
   214
 48
0.25
  5
18D
 66
     1
 10
0.0
 20
0.0
 30
0.0
 70
   128
  0
VERTEX
  8
1
  6
CONTINUOUS
 62
   214
 48
0.25
  5
18E
 10
33.143241
 20
11.96081
 30
0.0
 40
0.0
 41
0.0
  0
VERTEX
  8
1
  6
CONTINUOUS
 62
   214
 48
0.25
  5
18F
 10
33.018241
 20
11.96081
 30
0.0
 40
0.0
 41
0.0
  0
VERTEX
  8
1
  6
CONTINUOUS
 62
   214
 48
0.25
  5
190
 10
33.018241
 20
11.08581
 30
0.0
 40
0.0
 41
0.0
  0
VERTEX
  8
1
  6
CONTINUOUS
 62
   214
 48
0.25
  5
191
 10
33.143241
 20
11.08581
 30
0.0
 40
0.0
 41
0.0
  0
SEQEND
  8
0
  5
192
  0
POLYLINE
  8
1
  6
CONTINUOUS
 62
   214
 48
0.25
  5
193
 66
     1
 10
0.0
 20
0.0
 30
0.0
 70
   128
  0
VERTEX
  8
1
  6
CONTINUOUS
 62
   214
 48
0.25
  5
194
 10
33.018241
 20
11.64831
 30
0.0
 40
0.0
 41
0.0
  0
VERTEX
  8
1
  6
CONTINUOUS
 62
   214
 48
0.25
  5
195
 10
32.768241
 20
11.64831
 30
0.0
 40
0.0
 41
0.0
  0
SEQEND
  8
0
  5
196
  0
POLYLINE
  8
1
  6
CONTINUOUS
 62
   214
 48
0.25
  5
197
 66
     1
 10
0.0
 20
0.0
 30
0.0
 70
   128
  0
VERTEX
  8
1
  6
CONTINUOUS
 62
   214
 48
0.25
  5
198
 10
32.768241
 20
11.64831
 30
0.0
 40
0.0
 41
0.0
  0
VERTEX
  8
1
  6
CONTINUOUS
 62
   214
 48
0.25
  5
199
 10
32.768241
 20
10.39831
 30
0.0
 40
0.0
 41
0.0
  0
SEQEND
  8
0
  5
19A
  0
POLYLINE
  8
1
  6
CONTINUOUS
 62
   214
 48
0.25
  5
19B
 66
     1
 10
0.0
 20
0.0
 30
0.0
 70
   128
  0
VERTEX
  8
1
  6
CONTINUOUS
 62
   214
 48
0.25
  5
19C
 10
32.768241
 20
10.39831
 30
0.0
 40
0.0
 41
0.0
  0
VERTEX
  8
1
  6
CONTINUOUS
 62
   214
 48
0.25
  5
19D
 10
33.018241
 20
10.39831
 30
0.0
 40
0.0
 41
0.0
  0
SEQEND
  8
0
  5
19E
  0
POLYLINE
  8
1
  6
CONTINUOUS
 62
   214
 48
0.25
  5
19F
 66
     1
 10
0.0
 20
0.0
 30
0.0
 70
   128
  0
VERTEX
  8
1
  6
CONTINUOUS
 62
   214
 48
0.25
  5
1A0
 10
33.018241
 20
10.39831
 30
0.0
 40
0.0
 41
0.0
  0
VERTEX
  8
1
  6
CONTINUOUS
 62
   214
 48
0.25
  5
1A1
 10
33.018241
 20
11.08581
 30
0.0
 40
0.0
 41
0.0
  0
SEQEND
  8
0
  5
1A2
  0
POLYLINE
  8
1
  6
CONTINUOUS
 62
   214
 48
0.25
  5
1A3
 66
     1
 10
0.0
 20
0.0
 30
0.0
 70
   128
  0
VERTEX
  8
1
  6
CONTINUOUS
 62
   214
 48
0.25
  5
1A4
 10
33.018241
 20
10.39831
 30
0.0
 40
0.0
 41
0.0
  0
VERTEX
  8
1
  6
CONTINUOUS
 62
   214
 48
0.25
  5
1A5
 10
33.143241
 20
10.39831
 30
0.0
 40
0.0
 41
0.0
  0
VERTEX
  8
1
  6
CONTINUOUS
 62
   214
 48
0.25
  5
1A6
 10
33.143241
 20
11.08581
 30
0.0
 40
0.0
 41
0.0
  0
SEQEND
  8
0
  5
1A7
  0
POLYLINE
  8
1
  6
CONTINUOUS
 62
   214
 48
0.25
  5
1A8
 66
     1
 10
0.0
 20
0.0
 30
0.0
 70
   128
  0
VERTEX
  8
1
  6
CONTINUOUS
 62
   214
 48
0.25
  5
1A9
 10
33.393241
 20
11.08581
 30
0.0
 40
0.0
 41
0.0
  0
VERTEX
  8
1
  6
CONTINUOUS
 62
   214
 48
0.25
  5
1AA
 10
33.393241
 20
10.39831
 30
0.0
 40
0.0
 41
0.0
  0
VERTEX
  8
1
  6
CONTINUOUS
 62
   214
 48
0.25
  5
1AB
 10
33.143241
 20
10.39831
 30
0.0
 40
0.0
 41
0.0
  0
SEQEND
  8
0
  5
1AC
  0
ENDSEC
  0
EOF
