  0
SECTION
  2
HEADER
  9
$ACADVER
  1
AC1009
  9
$INSBASE
 10
0.0
 20
0.0
 30
0.0
  9
$EXTMIN
 10
-2.98176
 20
3.104459
 30
0.0
  9
$EXTMAX
 10
33.258239
 20
14.83581
 30
0.0
  9
$LIMMIN
 10
0.0
 20
0.0
  9
$LIMMAX
 10
0.0
 20
0.0
  9
$ORTHOMODE
 70
     0
  9
$REGENMODE
 70
     1
  9
$FILLMODE
 70
     1
  9
$QTEXTMODE
 70
     0
  9
$MIRRTEXT
 70
     1
  9
$DRAGMODE
 70
     2
  9
$LTSCALE
 40
1.0
  9
$OSMODE
 70
     0
  9
$ATTMODE
 70
     1
  9
$TEXTSIZE
 40
0.2
  9
$TRACEWID
 40
0.05
  9
$TEXTSTYLE
  7
STANDARD
  9
$CLAYER
  8
0
  9
$CELTYPE
  6
CONTINUOUS
  9
$CECOLOR
 62
   256
  9
$DIMSCALE
 40
1.0
  9
$DIMASZ
 40
0.18
  9
$DIMEXO
 40
0.0625
  9
$DIMDLI
 40
0.38
  9
$DIMRND
 40
0.0
  9
$DIMDLE
 40
0.0
  9
$DIMEXE
 40
0.18
  9
$DIMTP
 40
0.0
  9
$DIMTM
 40
0.0
  9
$DIMTXT
 40
0.18
  9
$DIMCEN
 40
0.09
  9
$DIMTSZ
 40
0.0
  9
$DIMTOL
 70
     0
  9
$DIMLIM
 70
     0
  9
$DIMTIH
 70
     1
  9
$DIMTOH
 70
     1
  9
$DIMSE1
 70
     0
  9
$DIMSE2
 70
     0
  9
$DIMTAD
 70
     0
  9
$DIMZIN
 70
     0
  9
$DIMBLK
  1

  9
$DIMASO
 70
     1
  9
$DIMSHO
 70
     1
  9
$DIMPOST
  1

  9
$DIMAPOST
  1

  9
$DIMALT
 70
     0
  9
$DIMALTD
 70
     2
  9
$DIMALTF
 40
25.4
  9
$DIMLFAC
 40
1.0
  9
$DIMTOFL
 70
     0
  9
$DIMTVP
 40
0.0
  9
$DIMTIX
 70
     0
  9
$DIMSOXD
 70
     0
  9
$DIMSAH
 70
     0
  9
$DIMBLK1
  1

  9
$DIMBLK2
  1

  9
$DIMSTYLE
  2
STANDARD
  9
$DIMCLRD
 70
     0
  9
$DIMCLRE
 70
     0
  9
$DIMCLRT
 70
     0
  9
$DIMTFAC
 40
1.0
  9
$DIMGAP
 40
0.09
  9
$LUNITS
 70
     2
  9
$LUPREC
 70
     4
  9
$AXISMODE
 70
     0
  9
$AXISUNIT
 10
0.0
 20
0.0
  9
$SKETCHINC
 40
0.1
  9
$FILLETRAD
 40
0.0
  9
$AUNITS
 70
     0
  9
$AUPREC
 70
     0
  9
$MENU
  1
acad
  9
$ELEVATION
 40
0.0
  9
$PELEVATION
 40
0.0
  9
$THICKNESS
 40
0.0
  9
$LIMCHECK
 70
     0
  9
$BLIPMODE
 70
     1
  9
$CHAMFERA
 40
0.0
  9
$CHAMFERB
 40
0.0
  9
$SKPOLY
 70
     0
  9
$TDCREATE
 40
0.000000000
  9
$TDUPDATE
 40
0.000000000
  9
$TDINDWG
 40
0.0000000000
  9
$TDUSRTIMER
 40
0.0000000000
  9
$USRTIMER
 70
     1
  9
$ANGBASE
 50
0.0
  9
$ANGDIR
 70
     0
  9
$PDMODE
 70
     0
  9
$PDSIZE
 40
0.0
  9
$PLINEWID
 40
0.0
  9
$COORDS
 70
     0
  9
$SPLFRAME
 70
     0
  9
$SPLINETYPE
 70
     6
  9
$SPLINESEGS
 70
     8
  9
$ATTDIA
 70
     0
  9
$ATTREQ
 70
     1
  9
$HANDLING
 70
     1
  9
$HANDSEED
  5
45E
  9
$SURFTAB1
 70
     6
  9
$SURFTAB2
 70
     6
  9
$SURFTYPE
 70
     6
  9
$SURFU
 70
     6
  9
$SURFV
 70
     6
  9
$UCSNAME
  2

  9
$UCSORG
 10
0.0
 20
0.0
 30
0.0
  9
$UCSXDIR
 10
1.0
 20
0.0
 30
0.0
  9
$UCSYDIR
 10
0.0
 20
1.0
 30
0.0
  9
$PUCSNAME
  2

  9
$PUCSORG
 10
0.0
 20
0.0
 30
0.0
  9
$PUCSXDIR
 10
1.0
 20
0.0
 30
0.0
  9
$PUCSYDIR
 10
0.0
 20
1.0
 30
0.0
  9
$USERI1
 70
     0
  9
$USERI2
 70
     0
  9
$USERI3
 70
     0
  9
$USERI4
 70
     0
  9
$USERI5
 70
     0
  9
$USERR1
 40
0.0
  9
$USERR2
 40
0.0
  9
$USERR3
 40
0.0
  9
$USERR4
 40
0.0
  9
$USERR5
 40
0.0
  9
$WORLDVIEW
 70
     1
  9
$SHADEDGE
 70
     3
  9
$SHADEDIF
 70
    70
  9
$TILEMODE
 70
     1
  9
$MAXACTVP
 70
    16
  9
$PINSBASE
 10
0.0
 20
0.0
 30
0.0
  9
$PLIMCHECK
 70
     0
  9
$PEXTMIN
 10
1.000000E+20
 20
1.000000E+20
 30
1.000000E+20
  9
$PEXTMAX
 10
-1.000000E+20
 20
-1.000000E+20
 30
-1.000000E+20
  9
$PLIMMIN
 10
0.0
 20
0.0
  9
$PLIMMAX
 10
12.0
 20
9.0
  9
$UNITMODE
 70
     0
  9
$VISRETAIN
 70
     0
  9
$PLINEGEN
 70
     0
  9
$PSLTSCALE
 70
     0
  9
$TREEDEPTH
 70
  3020
  9
$DWGCODEPAGE
  3
dos850
  0
ENDSEC
  0
SECTION
  2
TABLES
  0
TABLE
  2
VPORT
 70
     2
  0
VPORT
  2
*ACTIVE
 70
     0
 10
0.0
 20
0.0
 11
1.0
 21
1.0
 12
6.591288
 22
4.579184
 13
0.0
 23
0.0
 14
1.0
 24
1.0
 15
0.0
 25
0.0
 16
0.0
 26
0.0
 36
1.0
 17
0.0
 27
0.0
 37
0.0
 40
9.158369
 41
0.688564
 42
50.0
 43
0.0
 44
0.0
 50
0.0
 51
0.0
 71
     0
 72
   100
 73
     1
 74
     1
 75
     0
 76
     0
 77
     0
 78
     0
  0
VPORT
  2
DCADVPORT
 70
     0
 10
-2.98176
 20
3.104459
 11
33.258239
 21
14.83581
 12
6.21
 22
9.02
 13
0.0
 23
0.0
 14
1.0
 24
1.0
 15
0.0
 25
0.0
 16
0.0
 26
0.0
 36
1.0
 17
0.0
 27
0.0
 37
0.0
 40
18.04
 41
0.688564
 42
50.0
 43
1.0
 44
1.0
 50
0.0
 51
0.0
 71
     0
 72
   100
 73
     1
 74
     1
 75
     0
 76
     0
 77
     0
 78
     0
  0
ENDTAB
  0
TABLE
  2
LTYPE
 70
    13
  0
LTYPE
  2
CONTINUOUS
 70
     0
  3
Solid line
 72
    65
 73
     0
 40
0.0
  0
LTYPE
  2
CONTINUOUS
 70
     0
  3
Solid line
 72
    65
 73
     0
 40
0.0
  0
LTYPE
  2
BORDER
 70
    64
  3
__ __ . __ __ . __ __ . __ __ . __ __ . __ __ .
 72
    65
 73
     6
 40
1.75
 49
0.5
 49
-0.25
 49
0.5
 49
-0.25
 49
0.0
 49
-0.25
  0
LTYPE
  2
BORDER2
 70
    64
  3
__.__.__.__.__.__.__.__.__.__.__.__.__.__.__.__
 72
    65
 73
     6
 40
0.875
 49
0.25
 49
-0.125
 49
0.25
 49
-0.125
 49
0.0
 49
-0.125
  0
LTYPE
  2
CENTER
 70
    64
  3
____ _ ____ _ ____ _ ____ _ ____ _ ____ _ ____ 
 72
    65
 73
     4
 40
2.0
 49
1.25
 49
-0.25
 49
0.25
 49
-0.25
  0
LTYPE
  2
DASHDOT
 70
    64
  3
__ . __ . __ . __ . __ . __ . __ . __ . __ . __
 72
    65
 73
     4
 40
1.0
 49
0.5
 49
-0.25
 49
0.0
 49
-0.25
  0
LTYPE
  2
DASHDOT2
 70
    64
  3
_._._._._._._._._._._._._._._._._._._._._._._._
 72
    65
 73
     4
 40
0.5
 49
0.25
 49
-0.125
 49
0.0
 49
-0.125
  0
LTYPE
  2
DASHED
 70
    64
  3
__ __ __ __ __ __ __ __ __ __ __ __ __ __ __ __
 72
    65
 73
     2
 40
0.75
 49
0.5
 49
-0.25
  0
LTYPE
  2
DIVIDE
 70
    64
  3
____ . . ____ . . ____ . . ____ . . ____ . . __
 72
    65
 73
     6
 40
1.25
 49
0.5
 49
-0.25
 49
0.0
 49
-0.25
 49
0.0
 49
-0.25
  0
LTYPE
  2
DIVIDE2
 70
    64
  3
__..__..__..__..__..__..__..__..__..__..__..__.
 72
    65
 73
     6
 40
0.625
 49
0.25
 49
-0.125
 49
0.0
 49
-0.125
 49
0.0
 49
-0.125
  0
LTYPE
  2
DOT
 70
    64
  3
. . . . . . . . . . . . . . . . . . . . . . . .
 72
    65
 73
     2
 40
0.25
 49
0.0
 49
-0.25
  0
LTYPE
  2
HIDDEN
 70
    64
  3
__ __ __ __ __ __ __ __ __ __ __ __ __ __ __ __
 72
    65
 73
     2
 40
0.375
 49
0.25
 49
-0.125
  0
LTYPE
  2
PHANTOM
 70
    64
  3
______  __  __  ______  __  __  ______  __  __ 
 72
    65
 73
     6
 40
2.5
 49
1.25
 49
-0.25
 49
0.25
 49
-0.25
 49
0.25
 49
-0.25
  0
ENDTAB
  0
TABLE
  2
LAYER
 70
     6
  0
LAYER
  2
0
 70
     0
 62
     7
  6
CONTINUOUS
  0
LAYER
  2
1
 70
     0
 62
   250
  6
CONTINUOUS
  0
LAYER
  2
2
 70
     0
 62
   250
  6
CONTINUOUS
  0
LAYER
  2
4
 70
     0
 62
   250
  6
CONTINUOUS
  0
LAYER
  2
5
 70
     0
 62
   250
  6
CONTINUOUS
  0
LAYER
  2
7
 70
     0
 62
   250
  6
CONTINUOUS
  0
ENDTAB
  0
TABLE
  2
STYLE
 70
     2
  0
STYLE
  2
STANDARD
 70
     0
 40
0.0
 41
1.0
 50
0.0
 71
     0
 42
0.0
  3
txt
  4

  0
STYLE
  2
BIGFONT
 70
    64
 40
3.0
 41
1.0
 50
0.0
 71
     0
 42
0.2
  3

  4
BIGFONT
  0
ENDTAB
  0
TABLE
  2
VIEW
 70
     0
  0
ENDTAB
  0
TABLE
  2
UCS
 70
     0
  0
ENDTAB
  0
TABLE
  2
APPID
 70
     1
  0
APPID
  2
ACAD
 70
     0
  0
ENDTAB
  0
TABLE
  2
DIMSTYLE
 70
     1
  0
DIMSTYLE
  2
STANDARD
 70
     0
  3

  4

  5

  6

  7

 40
1.0
 41
0.18
 42
0.0625
 43
0.38
 44
0.18
 45
0.0
 46
0.0
 47
0.0
 48
0.0
140
0.18
141
0.09
142
0.0
143
25.4
144
1.0
145
0.0
146
1.0
147
0.09
 71
     0
 72
     0
 73
     1
 74
     1
 75
     0
 76
     0
 77
     0
 78
     0
170
     0
171
     2
172
     0
173
     0
174
     0
175
     0
176
     0
177
     0
178
     0
  0
ENDTAB
  0
ENDSEC
  0
SECTION
  2
BLOCKS
  0
ENDSEC
  0
SECTION
  2
ENTITIES
  0
POLYLINE
  8
2
  6
CONTINUOUS
 62
    14
 48
0.805031
  5
30
 66
     1
 10
0.0
 20
0.0
 30
0.0
 70
   128
  0
VERTEX
  8
2
  6
CONTINUOUS
 62
    14
 48
0.805031
  5
31
 10
25.808241
 20
5.010309
 30
0.0
 40
0.0
 41
0.0
  0
VERTEX
  8
2
  6
CONTINUOUS
 62
    14
 48
0.805031
  5
32
 10
25.558239
 20
5.010309
 30
0.0
 40
0.0
 41
0.0
  0
SEQEND
  8
0
  5
33
  0
POLYLINE
  8
2
  6
CONTINUOUS
 62
    14
 48
0.805031
  5
34
 66
     1
 10
0.0
 20
0.0
 30
0.0
 70
   128
  0
VERTEX
  8
2
  6
CONTINUOUS
 62
    14
 48
0.805031
  5
35
 10
29.058241
 20
5.010309
 30
0.0
 40
0.0
 41
0.0
  0
VERTEX
  8
2
  6
CONTINUOUS
 62
    14
 48
0.805031
  5
36
 10
28.245741
 20
5.010309
 30
0.0
 40
0.0
 41
0.0
  0
SEQEND
  8
0
  5
37
  0
POLYLINE
  8
2
  6
CONTINUOUS
 62
    14
 48
0.805031
  5
38
 66
     1
 10
0.0
 20
0.0
 30
0.0
 70
   128
  0
VERTEX
  8
2
  6
CONTINUOUS
 62
    14
 48
0.805031
  5
39
 10
28.245741
 20
5.010309
 30
0.0
 40
0.0
 41
0.0
  0
VERTEX
  8
2
  6
CONTINUOUS
 62
    14
 48
0.805031
  5
3A
 10
28.245741
 20
4.572809
 30
0.0
 40
0.0
 41
0.0
  0
SEQEND
  8
0
  5
3B
  0
POLYLINE
  8
2
  6
CONTINUOUS
 62
    14
 48
0.805031
  5
3C
 66
     1
 10
0.0
 20
0.0
 30
0.0
 70
   128
  0
VERTEX
  8
2
  6
CONTINUOUS
 62
    14
 48
0.805031
  5
3D
 10
29.058241
 20
9.197809
 30
0.0
 40
0.0
 41
0.0
  0
VERTEX
  8
2
  6
CONTINUOUS
 62
    14
 48
0.805031
  5
3E
 10
28.383239
 20
9.197809
 30
0.0
 40
0.0
 41
0.0
  0
SEQEND
  8
0
  5
3F
  0
POLYLINE
  8
2
  6
CONTINUOUS
 62
    14
 48
0.805031
  5
40
 66
     1
 10
0.0
 20
0.0
 30
0.0
 70
   128
  0
VERTEX
  8
2
  6
CONTINUOUS
 62
    14
 48
0.805031
  5
41
 10
28.933241
 20
9.522809
 30
0.0
 40
0.0
 41
0.0
  0
VERTEX
  8
2
  6
CONTINUOUS
 62
    14
 48
0.805031
  5
42
 10
29.058241
 20
9.522809
 30
0.0
 40
0.0
 41
0.0
  0
VERTEX
  8
2
  6
CONTINUOUS
 62
    14
 48
0.805031
  5
43
 10
29.058241
 20
9.58581
 30
0.0
 40
0.0
 41
0.0
  0
VERTEX
  8
2
  6
CONTINUOUS
 62
    14
 48
0.805031
  5
44
 10
29.668242
 20
9.58581
 30
0.0
 40
0.0
 41
0.0
  0
SEQEND
  8
0
  5
45
  0
POLYLINE
  8
2
  6
CONTINUOUS
 62
    14
 48
0.805031
  5
46
 66
     1
 10
0.0
 20
0.0
 30
0.0
 70
   128
  0
VERTEX
  8
2
  6
CONTINUOUS
 62
    14
 48
0.805031
  5
47
 10
28.933241
 20
9.522809
 30
0.0
 40
0.0
 41
0.0
  0
VERTEX
  8
2
  6
CONTINUOUS
 62
    14
 48
0.805031
  5
48
 10
28.78324
 20
9.672809
 30
0.0
 40
0.0
 41
0.0
  0
SEQEND
  8
0
  5
49
  0
POLYLINE
  8
2
  6
CONTINUOUS
 62
    14
 48
0.805031
  5
4A
 66
     1
 10
0.0
 20
0.0
 30
0.0
 70
   128
  0
VERTEX
  8
2
  6
CONTINUOUS
 62
    14
 48
0.805031
  5
4B
 10
28.78324
 20
9.772809
 30
0.0
 40
0.0
 41
0.0
  0
VERTEX
  8
2
  6
CONTINUOUS
 62
    14
 48
0.805031
  5
4C
 10
28.53324
 20
9.772809
 30
0.0
 40
0.0
 41
0.0
  0
SEQEND
  8
0
  5
4D
  0
POLYLINE
  8
2
  6
CONTINUOUS
 62
    14
 48
0.805031
  5
4E
 66
     1
 10
0.0
 20
0.0
 30
0.0
 70
   128
  0
VERTEX
  8
2
  6
CONTINUOUS
 62
    14
 48
0.805031
  5
4F
 10
28.53324
 20
9.772809
 30
0.0
 40
0.0
 41
0.0
  0
VERTEX
  8
2
  6
CONTINUOUS
 62
    14
 48
0.805031
  5
50
 10
28.383239
 20
9.622809
 30
0.0
 40
0.0
 41
0.0
  0
SEQEND
  8
0
  5
51
  0
POLYLINE
  8
2
  6
CONTINUOUS
 62
    14
 48
0.805031
  5
52
 66
     1
 10
0.0
 20
0.0
 30
0.0
 70
   128
  0
VERTEX
  8
2
  6
CONTINUOUS
 62
    14
 48
0.805031
  5
53
 10
28.383239
 20
9.622809
 30
0.0
 40
0.0
 41
0.0
  0
VERTEX
  8
2
  6
CONTINUOUS
 62
    14
 48
0.805031
  5
54
 10
28.383239
 20
9.197809
 30
0.0
 40
0.0
 41
0.0
  0
SEQEND
  8
0
  5
55
  0
POLYLINE
  8
2
  6
CONTINUOUS
 62
    14
 48
0.805031
  5
56
 66
     1
 10
0.0
 20
0.0
 30
0.0
 70
   128
  0
VERTEX
  8
2
  6
CONTINUOUS
 62
    14
 48
0.805031
  5
57
 10
28.933241
 20
9.622809
 30
0.0
 40
0.0
 41
0.0
  0
VERTEX
  8
2
  6
CONTINUOUS
 62
    14
 48
0.805031
  5
58
 10
28.933241
 20
9.522809
 30
0.0
 40
0.0
 41
0.0
  0
SEQEND
  8
0
  5
59
  0
POLYLINE
  8
2
  6
CONTINUOUS
 62
    14
 48
0.805031
  5
5A
 66
     1
 10
0.0
 20
0.0
 30
0.0
 70
   128
  0
VERTEX
  8
2
  6
CONTINUOUS
 62
    14
 48
0.805031
  5
5B
 10
29.668242
 20
9.58581
 30
0.0
 40
0.0
 41
0.0
  0
VERTEX
  8
2
  6
CONTINUOUS
 62
    14
 48
0.805031
  5
5C
 10
29.668242
 20
9.197811
 30
0.0
 40
0.0
 41
0.0
  0
SEQEND
  8
0
  5
5D
  0
POLYLINE
  8
2
  6
CONTINUOUS
 62
    14
 48
0.805031
  5
5E
 66
     1
 10
0.0
 20
0.0
 30
0.0
 70
   128
  0
VERTEX
  8
2
  6
CONTINUOUS
 62
    14
 48
0.805031
  5
5F
 10
29.668242
 20
9.197811
 30
0.0
 40
0.0
 41
0.0
  0
VERTEX
  8
2
  6
CONTINUOUS
 62
    14
 48
0.805031
  5
60
 10
29.393241
 20
9.197811
 30
0.0
 40
0.0
 41
0.0
  0
SEQEND
  8
0
  5
61
  0
POLYLINE
  8
2
  6
CONTINUOUS
 62
    14
 48
0.805031
  5
62
 66
     1
 10
0.0
 20
0.0
 30
0.0
 70
   128
  0
VERTEX
  8
2
  6
CONTINUOUS
 62
    14
 48
0.805031
  5
63
 10
29.393241
 20
8.74781
 30
0.0
 40
0.0
 41
0.0
  0
VERTEX
  8
2
  6
CONTINUOUS
 62
    14
 48
0.805031
  5
64
 10
29.393241
 20
8.74781
 30
0.0
 40
0.0
 41
0.0
  0
SEQEND
  8
0
  5
65
  0
POLYLINE
  8
2
  6
CONTINUOUS
 62
    14
 48
0.805031
  5
66
 66
     1
 10
0.0
 20
0.0
 30
0.0
 70
   128
  0
VERTEX
  8
2
  6
CONTINUOUS
 62
    14
 48
0.805031
  5
67
 10
29.393241
 20
8.74781
 30
0.0
 40
0.0
 41
0.0
  0
VERTEX
  8
2
  6
CONTINUOUS
 62
    14
 48
0.805031
  5
68
 10
29.393241
 20
9.197811
 30
0.0
 40
0.0
 41
0.0
  0
SEQEND
  8
0
  5
69
  0
POLYLINE
  8
2
  6
CONTINUOUS
 62
    14
 48
0.805031
  5
6A
 66
     1
 10
0.0
 20
0.0
 30
0.0
 70
   128
  0
VERTEX
  8
2
  6
CONTINUOUS
 62
    14
 48
0.805031
  5
6B
 10
30.618241
 20
9.19781
 30
0.0
 40
0.0
 41
0.0
  0
VERTEX
  8
2
  6
CONTINUOUS
 62
    14
 48
0.805031
  5
6C
 10
30.868241
 20
9.19781
 30
0.0
 40
0.0
 41
0.0
  0
SEQEND
  8
0
  5
6D
  0
POLYLINE
  8
2
  6
CONTINUOUS
 62
    14
 48
0.805031
  5
6E
 66
     1
 10
0.0
 20
0.0
 30
0.0
 70
   128
  0
VERTEX
  8
2
  6
CONTINUOUS
 62
    14
 48
0.805031
  5
6F
 10
30.868241
 20
9.19781
 30
0.0
 40
0.0
 41
0.0
  0
VERTEX
  8
2
  6
CONTINUOUS
 62
    14
 48
0.805031
  5
70
 10
30.868241
 20
8.74781
 30
0.0
 40
0.0
 41
0.0
  0
VERTEX
  8
2
  6
CONTINUOUS
 62
    14
 48
0.805031
  5
71
 10
29.393241
 20
8.74781
 30
0.0
 40
0.0
 41
0.0
  0
SEQEND
  8
0
  5
72
  0
POLYLINE
  8
2
  6
CONTINUOUS
 62
    14
 48
0.805031
  5
73
 66
     1
 10
0.0
 20
0.0
 30
0.0
 70
   128
  0
VERTEX
  8
2
  6
CONTINUOUS
 62
    14
 48
0.805031
  5
74
 10
31.618241
 20
9.19781
 30
0.0
 40
0.0
 41
0.0
  0
VERTEX
  8
2
  6
CONTINUOUS
 62
    14
 48
0.805031
  5
75
 10
31.293242
 20
9.19781
 30
0.0
 40
0.0
 41
0.0
  0
SEQEND
  8
0
  5
76
  0
POLYLINE
  8
2
  6
CONTINUOUS
 62
    14
 48
0.805031
  5
77
 66
     1
 10
0.0
 20
0.0
 30
0.0
 70
   128
  0
VERTEX
  8
2
  6
CONTINUOUS
 62
    14
 48
0.805031
  5
78
 10
31.293242
 20
9.19781
 30
0.0
 40
0.0
 41
0.0
  0
VERTEX
  8
2
  6
CONTINUOUS
 62
    14
 48
0.805031
  5
79
 10
31.293242
 20
5.01031
 30
0.0
 40
0.0
 41
0.0
  0
SEQEND
  8
0
  5
7A
  0
POLYLINE
  8
2
  6
CONTINUOUS
 62
    14
 48
0.805031
  5
7B
 66
     1
 10
0.0
 20
0.0
 30
0.0
 70
   128
  0
VERTEX
  8
2
  6
CONTINUOUS
 62
    14
 48
0.805031
  5
7C
 10
31.293242
 20
5.01031
 30
0.0
 40
0.0
 41
0.0
  0
VERTEX
  8
2
  6
CONTINUOUS
 62
    14
 48
0.805031
  5
7D
 10
32.105742
 20
5.01031
 30
0.0
 40
0.0
 41
0.0
  0
SEQEND
  8
0
  5
7E
  0
POLYLINE
  8
2
  6
CONTINUOUS
 62
    14
 48
0.805031
  5
7F
 66
     1
 10
0.0
 20
0.0
 30
0.0
 70
   128
  0
VERTEX
  8
2
  6
CONTINUOUS
 62
    14
 48
0.805031
  5
80
 10
32.105742
 20
5.01031
 30
0.0
 40
0.0
 41
0.0
  0
VERTEX
  8
2
  6
CONTINUOUS
 62
    14
 48
0.805031
  5
81
 10
32.105742
 20
4.57281
 30
0.0
 40
0.0
 41
0.0
  0
SEQEND
  8
0
  5
82
  0
POLYLINE
  8
2
  6
CONTINUOUS
 62
    14
 48
0.805031
  5
83
 66
     1
 10
0.0
 20
0.0
 30
0.0
 70
   128
  0
VERTEX
  8
2
  6
CONTINUOUS
 62
    14
 48
0.805031
  5
84
 10
29.058241
 20
5.010309
 30
0.0
 40
0.0
 41
0.0
  0
VERTEX
  8
2
  6
CONTINUOUS
 62
    14
 48
0.805031
  5
85
 10
29.058241
 20
9.197809
 30
0.0
 40
0.0
 41
0.0
  0
SEQEND
  8
0
  5
86
  0
POLYLINE
  8
2
  6
CONTINUOUS
 62
    14
 48
0.805031
  5
87
 66
     1
 10
0.0
 20
0.0
 30
0.0
 70
   128
  0
VERTEX
  8
2
  6
CONTINUOUS
 62
    14
 48
0.805031
  5
88
 10
29.058241
 20
6.91081
 30
0.0
 40
0.0
 41
0.0
  0
VERTEX
  8
2
  6
CONTINUOUS
 62
    14
 48
0.805031
  5
89
 10
31.293239
 20
6.91081
 30
0.0
 40
0.0
 41
0.0
  0
SEQEND
  8
0
  5
8A
  0
CIRCLE
  8
2
  6
CONTINUOUS
 62
    14
 48
0.805031
  5
8B
 10
-30.143241
 20
13.185809
 30
0.0
 40
1.574999
210
0.0
220
0.0
230
-1.0
  0
CIRCLE
  8
2
  6
CONTINUOUS
 62
    14
 48
0.805031
  5
8C
 10
-30.143241
 20
13.185809
 30
0.0
 40
0.3125
210
0.0
220
0.0
230
-1.0
  0
POLYLINE
  8
2
  6
CONTINUOUS
 62
    14
 48
0.805031
  5
8D
 66
     1
 10
0.0
 20
0.0
 30
0.0
 70
   128
  0
VERTEX
  8
2
  6
CONTINUOUS
 62
    14
 48
0.805031
  5
8E
 10
28.668242
 20
14.83581
 30
0.0
 40
0.0
 41
0.0
  0
VERTEX
  8
2
  6
CONTINUOUS
 62
    14
 48
0.805031
  5
8F
 10
28.418242
 20
14.58581
 30
0.0
 40
0.0
 41
0.0
  0
SEQEND
  8
0
  5
90
  0
POLYLINE
  8
2
  6
CONTINUOUS
 62
    14
 48
0.805031
  5
91
 66
     1
 10
0.0
 20
0.0
 30
0.0
 70
   128
  0
VERTEX
  8
2
  6
CONTINUOUS
 62
    14
 48
0.805031
  5
92
 10
28.418242
 20
14.58581
 30
0.0
 40
0.0
 41
0.0
  0
VERTEX
  8
2
  6
CONTINUOUS
 62
    14
 48
0.805031
  5
93
 10
28.418242
 20
9.58581
 30
0.0
 40
0.0
 41
0.0
  0
SEQEND
  8
0
  5
94
  0
POLYLINE
  8
2
  6
CONTINUOUS
 62
    14
 48
0.805031
  5
95
 66
     1
 10
0.0
 20
0.0
 30
0.0
 70
   128
  0
VERTEX
  8
2
  6
CONTINUOUS
 62
    14
 48
0.805031
  5
96
 10
28.668242
 20
14.83581
 30
0.0
 40
0.0
 41
0.0
  0
VERTEX
  8
2
  6
CONTINUOUS
 62
    14
 48
0.805031
  5
97
 10
31.618241
 20
14.83581
 30
0.0
 40
0.0
 41
0.0
  0
SEQEND
  8
0
  5
98
  0
POLYLINE
  8
2
  6
CONTINUOUS
 62
    14
 48
0.805031
  5
99
 66
     1
 10
0.0
 20
0.0
 30
0.0
 70
   128
  0
VERTEX
  8
2
  6
CONTINUOUS
 62
    14
 48
0.805031
  5
9A
 10
31.618241
 20
14.83581
 30
0.0
 40
0.0
 41
0.0
  0
VERTEX
  8
2
  6
CONTINUOUS
 62
    14
 48
0.805031
  5
9B
 10
31.868241
 20
14.58581
 30
0.0
 40
0.0
 41
0.0
  0
SEQEND
  8
0
  5
9C
  0
POLYLINE
  8
2
  6
CONTINUOUS
 62
    14
 48
0.805031
  5
9D
 66
     1
 10
0.0
 20
0.0
 30
0.0
 70
   128
  0
VERTEX
  8
2
  6
CONTINUOUS
 62
    14
 48
0.805031
  5
9E
 10
31.868241
 20
14.58581
 30
0.0
 40
0.0
 41
0.0
  0
VERTEX
  8
2
  6
CONTINUOUS
 62
    14
 48
0.805031
  5
9F
 10
31.868241
 20
9.58581
 30
0.0
 40
0.0
 41
0.0
  0
SEQEND
  8
0
  5
A0
  0
POLYLINE
  8
2
  6
CONTINUOUS
 62
    14
 48
0.805031
  5
A1
 66
     1
 10
0.0
 20
0.0
 30
0.0
 70
   128
  0
VERTEX
  8
2
  6
CONTINUOUS
 62
    14
 48
0.805031
  5
A2
 10
31.618241
 20
9.58581
 30
0.0
 40
0.0
 41
0.0
  0
VERTEX
  8
2
  6
CONTINUOUS
 62
    14
 48
0.805031
  5
A3
 10
31.868241
 20
9.58581
 30
0.0
 40
0.0
 41
0.0
  0
SEQEND
  8
0
  5
A4
  0
POLYLINE
  8
2
  6
CONTINUOUS
 62
    14
 48
0.805031
  5
A5
 66
     1
 10
0.0
 20
0.0
 30
0.0
 70
   128
  0
VERTEX
  8
2
  6
CONTINUOUS
 62
    14
 48
0.805031
  5
A6
 10
33.258239
 20
4.572809
 30
0.0
 40
0.0
 41
0.0
  0
VERTEX
  8
2
  6
CONTINUOUS
 62
    14
 48
0.805031
  5
A7
 10
33.258239
 20
4.572809
 30
0.0
 40
0.0
 41
0.0
  0
SEQEND
  8
0
  5
A8
  0
POLYLINE
  8
2
  6
CONTINUOUS
 62
    14
 48
0.805031
  5
A9
 66
     1
 10
0.0
 20
0.0
 30
0.0
 70
   128
  0
VERTEX
  8
2
  6
CONTINUOUS
 62
    14
 48
0.805031
  5
AA
 10
25.808241
 20
5.010309
 30
0.0
 40
0.0
 41
0.0
  0
VERTEX
  8
2
  6
CONTINUOUS
 62
    14
 48
0.805031
  5
AB
 10
26.308241
 20
4.572809
 30
0.0
 40
0.0
 41
0.0
  0
VERTEX
  8
2
  6
CONTINUOUS
 62
    14
 48
0.805031
  5
AC
 10
28.245741
 20
4.572809
 30
0.0
 40
0.0
 41
0.0
  0
SEQEND
  8
0
  5
AD
  0
POLYLINE
  8
2
  6
CONTINUOUS
 62
    14
 48
0.805031
  5
AE
 66
     1
 10
0.0
 20
0.0
 30
0.0
 70
   128
  0
VERTEX
  8
2
  6
CONTINUOUS
 62
    14
 48
0.805031
  5
AF
 10
33.258239
 20
4.572809
 30
0.0
 40
0.0
 41
0.0
  0
VERTEX
  8
2
  6
CONTINUOUS
 62
    14
 48
0.805031
  5
B0
 10
32.105742
 20
4.57281
 30
0.0
 40
0.0
 41
0.0
  0
SEQEND
  8
0
  5
B1
  0
POLYLINE
  8
2
  6
CONTINUOUS
 62
    14
 48
0.805031
  5
B2
 66
     1
 10
0.0
 20
0.0
 30
0.0
 70
   128
  0
VERTEX
  8
2
  6
CONTINUOUS
 62
    14
 48
0.805031
  5
B3
 10
28.245741
 20
4.572809
 30
0.0
 40
0.0
 41
0.0
  0
VERTEX
  8
2
  6
CONTINUOUS
 62
    14
 48
0.805031
  5
B4
 10
32.105742
 20
4.57281
 30
0.0
 40
0.0
 41
0.0
  0
SEQEND
  8
0
  5
B5
  0
POLYLINE
  8
4
  6
CONTINUOUS
 62
   174
 48
0.125
  5
B6
 66
     1
 10
0.0
 20
0.0
 30
0.0
 70
   128
  0
VERTEX
  8
4
  6
CONTINUOUS
 62
   174
 48
0.125
  5
B7
 10
31.618241
 20
10.857809
 30
0.0
 40
0.0
 41
0.0
  0
VERTEX
  8
4
  6
CONTINUOUS
 62
   174
 48
0.125
  5
B8
 10
25.568241
 20
10.857809
 30
0.0
 40
0.0
 41
0.0
  0
SEQEND
  8
0
  5
B9
  0
POLYLINE
  8
4
  6
CONTINUOUS
 62
   174
 48
0.125
  5
BA
 66
     1
 10
0.0
 20
0.0
 30
0.0
 70
   128
  0
VERTEX
  8
4
  6
CONTINUOUS
 62
   174
 48
0.125
  5
BB
 10
31.618241
 20
10.857809
 30
0.0
 40
0.0
 41
0.0
  0
VERTEX
  8
4
  6
CONTINUOUS
 62
   174
 48
0.125
  5
BC
 10
31.618241
 20
10.232809
 30
0.0
 40
0.0
 41
0.0
  0
SEQEND
  8
0
  5
BD
  0
POLYLINE
  8
4
  6
CONTINUOUS
 62
   174
 48
0.125
  5
BE
 66
     1
 10
0.0
 20
0.0
 30
0.0
 70
   128
  0
VERTEX
  8
4
  6
CONTINUOUS
 62
   174
 48
0.125
  5
BF
 10
25.568241
 20
10.232809
 30
0.0
 40
0.0
 41
0.0
  0
VERTEX
  8
4
  6
CONTINUOUS
 62
   174
 48
0.125
  5
C0
 10
31.618241
 20
10.232809
 30
0.0
 40
0.0
 41
0.0
  0
SEQEND
  8
0
  5
C1
  0
CIRCLE
  8
7
  6
CONTINUOUS
 62
   214
 48
0.229803
  5
C2
 10
-30.143241
 20
13.185809
 30
0.0
 40
1.081999
210
0.0
220
0.0
230
-1.0
  0
CIRCLE
  8
7
  6
CONTINUOUS
 62
   214
 48
0.229803
  5
C3
 10
-30.143241
 20
13.185809
 30
0.0
 40
0.232
210
0.0
220
0.0
230
-1.0
  0
POLYLINE
  8
4
  6
CONTINUOUS
 62
   174
 48
0.229803
  5
C4
 66
     1
 10
0.0
 20
0.0
 30
0.0
 70
   128
  0
VERTEX
  8
4
  6
CONTINUOUS
 62
   174
 48
0.229803
  5
C5
 10
28.90324
 20
9.627809
 30
0.0
 40
0.0
 41
0.0
  0
VERTEX
  8
4
  6
CONTINUOUS
 62
   174
 48
0.229803
  5
C6
 10
28.693243
 20
9.837808
 30
0.0
 40
0.0
 41
0.0
  0
SEQEND
  8
0
  5
C7
  0
POLYLINE
  8
4
  6
CONTINUOUS
 62
   174
 48
0.229803
  5
C8
 66
     1
 10
0.0
 20
0.0
 30
0.0
 70
   128
  0
VERTEX
  8
4
  6
CONTINUOUS
 62
   174
 48
0.229803
  5
C9
 10
28.693243
 20
9.737808
 30
0.0
 40
0.0
 41
0.0
  0
VERTEX
  8
4
  6
CONTINUOUS
 62
   174
 48
0.229803
  5
CA
 10
28.563243
 20
9.737808
 30
0.0
 40
0.0
 41
0.0
  0
SEQEND
  8
0
  5
CB
  0
POLYLINE
  8
4
  6
CONTINUOUS
 62
   174
 48
0.229803
  5
CC
 66
     1
 10
0.0
 20
0.0
 30
0.0
 70
   128
  0
VERTEX
  8
4
  6
CONTINUOUS
 62
   174
 48
0.229803
  5
CD
 10
28.563243
 20
9.737808
 30
0.0
 40
0.0
 41
0.0
  0
VERTEX
  8
4
  6
CONTINUOUS
 62
   174
 48
0.229803
  5
CE
 10
28.353242
 20
9.527809
 30
0.0
 40
0.0
 41
0.0
  0
SEQEND
  8
0
  5
CF
  0
POLYLINE
  8
4
  6
CONTINUOUS
 62
   174
 48
0.229803
  5
D0
 66
     1
 10
0.0
 20
0.0
 30
0.0
 70
   128
  0
VERTEX
  8
4
  6
CONTINUOUS
 62
   174
 48
0.229803
  5
D1
 10
26.50324
 20
9.527809
 30
0.0
 40
0.0
 41
0.0
  0
VERTEX
  8
4
  6
CONTINUOUS
 62
   174
 48
0.229803
  5
D2
 10
26.50324
 20
10.152809
 30
0.0
 40
0.0
 41
0.0
  0
VERTEX
  8
4
  6
CONTINUOUS
 62
   174
 48
0.229803
  5
D3
 10
29.02824
 20
10.152809
 30
0.0
 40
0.0
 41
0.0
  0
VERTEX
  8
4
  6
CONTINUOUS
 62
   174
 48
0.229803
  5
D4
 10
29.02824
 20
9.527809
 30
0.0
 40
0.0
 41
0.0
  0
SEQEND
  8
0
  5
D5
  0
POLYLINE
  8
4
  6
CONTINUOUS
 62
   174
 48
0.229803
  5
D6
 66
     1
 10
0.0
 20
0.0
 30
0.0
 70
   128
  0
VERTEX
  8
4
  6
CONTINUOUS
 62
   174
 48
0.229803
  5
D7
 10
26.50324
 20
9.527809
 30
0.0
 40
0.0
 41
0.0
  0
VERTEX
  8
4
  6
CONTINUOUS
 62
   174
 48
0.229803
  5
D8
 10
27.853242
 20
9.527809
 30
0.0
 40
0.0
 41
0.0
  0
SEQEND
  8
0
  5
D9
  0
POLYLINE
  8
7
  6
CONTINUOUS
 62
   214
 48
0.229803
  5
DA
 66
     1
 10
0.0
 20
0.0
 30
0.0
 70
   128
  0
VERTEX
  8
7
  6
CONTINUOUS
 62
   214
 48
0.229803
  5
DB
 10
30.618241
 20
9.627809
 30
0.0
 40
0.0
 41
0.0
  0
VERTEX
  8
7
  6
CONTINUOUS
 62
   214
 48
0.229803
  5
DC
 10
30.618241
 20
9.627809
 30
0.0
 40
0.0
 41
0.0
  0
SEQEND
  8
0
  5
DD
  0
POLYLINE
  8
4
  6
CONTINUOUS
 62
   174
 48
0.229803
  5
DE
 66
     1
 10
0.0
 20
0.0
 30
0.0
 70
   128
  0
VERTEX
  8
4
  6
CONTINUOUS
 62
   174
 48
0.229803
  5
DF
 10
28.353242
 20
9.527809
 30
0.0
 40
0.0
 41
0.0
  0
VERTEX
  8
4
  6
CONTINUOUS
 62
   174
 48
0.229803
  5
E0
 10
28.353242
 20
9.177809
 30
0.0
 40
0.0
 41
0.0
  0
SEQEND
  8
0
  5
E1
  0
POLYLINE
  8
4
  6
CONTINUOUS
 62
   174
 48
0.229803
  5
E2
 66
     1
 10
0.0
 20
0.0
 30
0.0
 70
   128
  0
VERTEX
  8
4
  6
CONTINUOUS
 62
   174
 48
0.229803
  5
E3
 10
27.853242
 20
9.527809
 30
0.0
 40
0.0
 41
0.0
  0
VERTEX
  8
4
  6
CONTINUOUS
 62
   174
 48
0.229803
  5
E4
 10
27.853242
 20
9.177809
 30
0.0
 40
0.0
 41
0.0
  0
VERTEX
  8
4
  6
CONTINUOUS
 62
   174
 48
0.229803
  5
E5
 10
28.353242
 20
9.177809
 30
0.0
 40
0.0
 41
0.0
  0
SEQEND
  8
0
  5
E6
  0
POLYLINE
  8
2
  6
CONTINUOUS
 62
    14
 48
0.805031
  5
E7
 66
     1
 10
0.0
 20
0.0
 30
0.0
 70
   128
  0
VERTEX
  8
2
  6
CONTINUOUS
 62
    14
 48
0.805031
  5
E8
 10
30.618241
 20
9.58581
 30
0.0
 40
0.0
 41
0.0
  0
VERTEX
  8
2
  6
CONTINUOUS
 62
    14
 48
0.805031
  5
E9
 10
31.618241
 20
9.58581
 30
0.0
 40
0.0
 41
0.0
  0
VERTEX
  8
2
  6
CONTINUOUS
 62
    14
 48
0.805031
  5
EA
 10
31.618241
 20
9.19781
 30
0.0
 40
0.0
 41
0.0
  0
SEQEND
  8
0
  5
EB
  0
POLYLINE
  8
2
  6
CONTINUOUS
 62
    14
 48
0.229803
  5
EC
 66
     1
 10
0.0
 20
0.0
 30
0.0
 70
   128
  0
VERTEX
  8
2
  6
CONTINUOUS
 62
    14
 48
0.229803
  5
ED
 10
30.618241
 20
9.58581
 30
0.0
 40
0.0
 41
0.0
  0
VERTEX
  8
2
  6
CONTINUOUS
 62
    14
 48
0.229803
  5
EE
 10
30.618241
 20
9.19781
 30
0.0
 40
0.0
 41
0.0
  0
SEQEND
  8
0
  5
EF
  0
POLYLINE
  8
4
  6
CONTINUOUS
 62
   174
 48
0.229803
  5
F0
 66
     1
 10
0.0
 20
0.0
 30
0.0
 70
   128
  0
VERTEX
  8
4
  6
CONTINUOUS
 62
   174
 48
0.229803
  5
F1
 10
29.02824
 20
9.627809
 30
0.0
 40
0.0
 41
0.0
  0
VERTEX
  8
4
  6
CONTINUOUS
 62
   174
 48
0.229803
  5
F2
 10
28.90324
 20
9.627809
 30
0.0
 40
0.0
 41
0.0
  0
SEQEND
  8
0
  5
F3
  0
CIRCLE
  8
4
  6
CONTINUOUS
 62
   174
 48
0.229803
  5
F4
 10
-28.15824
 20
7.767809
 30
0.0
 40
0.3125
210
0.0
220
0.0
230
-1.0
  0
CIRCLE
  8
7
  6
CONTINUOUS
 62
   214
 48
0.229803
  5
F5
 10
-28.15824
 20
7.767809
 30
0.0
 40
0.5
210
0.0
220
0.0
230
-1.0
  0
POLYLINE
  8
7
  6
CONTINUOUS
 62
   214
 48
0.229803
  5
F6
 66
     1
 10
0.0
 20
0.0
 30
0.0
 70
   128
  0
VERTEX
  8
7
  6
CONTINUOUS
 62
   214
 48
0.229803
  5
F7
 10
28.47074
 20
7.330309
 30
0.0
 40
0.0
 41
0.0
  0
VERTEX
  8
7
  6
CONTINUOUS
 62
   214
 48
0.229803
  5
F8
 10
28.47074
 20
6.330309
 30
0.0
 40
0.0
 41
0.0
  0
VERTEX
  8
7
  6
CONTINUOUS
 62
   214
 48
0.229803
  5
F9
 10
27.84574
 20
6.330309
 30
0.0
 40
0.0
 41
0.0
  0
VERTEX
  8
7
  6
CONTINUOUS
 62
   214
 48
0.229803
  5
FA
 10
27.84574
 20
7.330309
 30
0.0
 40
0.0
 41
0.0
  0
VERTEX
  8
7
  6
CONTINUOUS
 62
   214
 48
0.229803
  5
FB
 10
28.47074
 20
7.330309
 30
0.0
 40
0.0
 41
0.0
  0
SEQEND
  8
0
  5
FC
  0
POLYLINE
  8
4
  6
CONTINUOUS
 62
   174
 48
0.229803
  5
FD
 66
     1
 10
0.0
 20
0.0
 30
0.0
 70
   128
  0
VERTEX
  8
4
  6
CONTINUOUS
 62
   174
 48
0.229803
  5
FE
 10
27.453242
 20
9.527809
 30
0.0
 40
0.0
 41
0.0
  0
VERTEX
  8
4
  6
CONTINUOUS
 62
   174
 48
0.229803
  5
FF
 10
27.453242
 20
6.827809
 30
0.0
 40
0.0
 41
0.0
  0
VERTEX
  8
4
  6
CONTINUOUS
 62
   174
 48
0.229803
  5
100
 10
26.553241
 20
6.827809
 30
0.0
 40
0.0
 41
0.0
  0
VERTEX
  8
4
  6
CONTINUOUS
 62
   174
 48
0.229803
  5
101
 10
26.553241
 20
9.527809
 30
0.0
 40
0.0
 41
0.0
  0
SEQEND
  8
0
  5
102
  0
POLYLINE
  8
4
  6
CONTINUOUS
 62
   174
 48
0.125
  5
103
 66
     1
 10
0.0
 20
0.0
 30
0.0
 70
   128
  0
VERTEX
  8
4
  6
CONTINUOUS
 62
   174
 48
0.125
  5
104
 10
25.568241
 20
10.857809
 30
0.0
 40
0.0
 41
0.0
  0
VERTEX
  8
4
  6
CONTINUOUS
 62
   174
 48
0.125
  5
105
 10
25.568241
 20
10.232809
 30
0.0
 40
0.0
 41
0.0
  0
SEQEND
  8
0
  5
106
  0
POLYLINE
  8
2
  6
CONTINUOUS
 62
    14
 48
2.0
  5
107
 66
     1
 10
0.0
 20
0.0
 30
0.0
 70
   128
  0
VERTEX
  8
2
  6
CONTINUOUS
 62
    14
 48
2.0
  5
108
 10
-0.381759
 20
9.19781
 30
0.0
 40
0.0
 41
0.0
  0
VERTEX
  8
2
  6
CONTINUOUS
 62
    14
 48
2.0
  5
109
 10
19.618241
 20
9.19781
 30
0.0
 40
0.0
 41
0.0
  0
SEQEND
  8
0
  5
10A
  0
POLYLINE
  8
2
  6
CONTINUOUS
 62
    14
 48
2.0
  5
10B
 66
     1
 10
0.0
 20
0.0
 30
0.0
 70
   128
  0
VERTEX
  8
2
  6
CONTINUOUS
 62
    14
 48
2.0
  5
10C
 10
19.618241
 20
9.19781
 30
0.0
 40
0.0
 41
0.0
  0
VERTEX
  8
2
  6
CONTINUOUS
 62
    14
 48
2.0
  5
10D
 10
19.618241
 20
6.847811
 30
0.0
 40
0.0
 41
0.0
  0
SEQEND
  8
0
  5
10E
  0
POLYLINE
  8
2
  6
CONTINUOUS
 62
    14
 48
2.0
  5
10F
 66
     1
 10
0.0
 20
0.0
 30
0.0
 70
   128
  0
VERTEX
  8
2
  6
CONTINUOUS
 62
    14
 48
2.0
  5
110
 10
-0.381759
 20
9.19781
 30
0.0
 40
0.0
 41
0.0
  0
VERTEX
  8
2
  6
CONTINUOUS
 62
    14
 48
2.0
  5
111
 10
-0.381759
 20
8.797809
 30
0.0
 40
0.0
 41
0.0
  0
SEQEND
  8
0
  5
112
  0
POLYLINE
  8
2
  6
CONTINUOUS
 62
    14
 48
2.0
  5
113
 66
     1
 10
0.0
 20
0.0
 30
0.0
 70
   128
  0
VERTEX
  8
2
  6
CONTINUOUS
 62
    14
 48
2.0
  5
114
 10
-0.381759
 20
8.797809
 30
0.0
 40
0.0
 41
0.0
  0
VERTEX
  8
2
  6
CONTINUOUS
 62
    14
 48
2.0
  5
115
 10
-1.40176
 20
8.797809
 30
0.0
 40
0.0
 41
0.0
  0
SEQEND
  8
0
  5
116
  0
POLYLINE
  8
2
  6
CONTINUOUS
 62
    14
 48
2.0
  5
117
 66
     1
 10
0.0
 20
0.0
 30
0.0
 70
   128
  0
VERTEX
  8
2
  6
CONTINUOUS
 62
    14
 48
2.0
  5
118
 10
-1.40176
 20
8.797809
 30
0.0
 40
0.0
 41
0.0
  0
VERTEX
  8
2
  6
CONTINUOUS
 62
    14
 48
2.0
  5
119
 10
-1.40176
 20
4.667808
 30
0.0
 40
0.0
 41
0.0
  0
SEQEND
  8
0
  5
11A
  0
POLYLINE
  8
2
  6
CONTINUOUS
 62
    14
 48
2.0
  5
11B
 66
     1
 10
0.0
 20
0.0
 30
0.0
 70
   128
  0
VERTEX
  8
2
  6
CONTINUOUS
 62
    14
 48
2.0
  5
11C
 10
-1.40176
 20
4.667808
 30
0.0
 40
0.0
 41
0.0
  0
VERTEX
  8
2
  6
CONTINUOUS
 62
    14
 48
2.0
  5
11D
 10
5.898242
 20
4.667808
 30
0.0
 40
0.0
 41
0.0
  0
SEQEND
  8
0
  5
11E
  0
POLYLINE
  8
2
  6
CONTINUOUS
 62
    14
 48
2.0
  5
11F
 66
     1
 10
0.0
 20
0.0
 30
0.0
 70
   128
  0
VERTEX
  8
2
  6
CONTINUOUS
 62
    14
 48
2.0
  5
120
 10
15.638242
 20
4.667804
 30
0.0
 40
0.0
 41
0.0
  0
VERTEX
  8
2
  6
CONTINUOUS
 62
    14
 48
2.0
  5
121
 10
18.258241
 20
4.667804
 30
0.0
 40
0.0
 41
0.0
  0
SEQEND
  8
0
  5
122
  0
POLYLINE
  8
2
  6
CONTINUOUS
 62
    14
 48
2.0
  5
123
 66
     1
 10
0.0
 20
0.0
 30
0.0
 70
   128
  0
VERTEX
  8
2
  6
CONTINUOUS
 62
    14
 48
2.0
  5
124
 10
15.638242
 20
5.117804
 30
0.0
 40
0.0
 41
0.0
  0
VERTEX
  8
2
  6
CONTINUOUS
 62
    14
 48
2.0
  5
125
 10
18.258241
 20
5.117804
 30
0.0
 40
0.0
 41
0.0
  0
SEQEND
  8
0
  5
126
  0
POLYLINE
  8
2
  6
CONTINUOUS
 62
    14
 48
2.0
  5
127
 66
     1
 10
0.0
 20
0.0
 30
0.0
 70
   128
  0
VERTEX
  8
2
  6
CONTINUOUS
 62
    14
 48
2.0
  5
128
 10
5.898242
 20
5.117808
 30
0.0
 40
0.0
 41
0.0
  0
VERTEX
  8
2
  6
CONTINUOUS
 62
    14
 48
2.0
  5
129
 10
5.898242
 20
5.117808
 30
0.0
 40
0.0
 41
0.0
  0
SEQEND
  8
0
  5
12A
  0
POLYLINE
  8
2
  6
CONTINUOUS
 62
    14
 48
2.0
  5
12B
 66
     1
 10
0.0
 20
0.0
 30
0.0
 70
   128
  0
VERTEX
  8
2
  6
CONTINUOUS
 62
    14
 48
2.0
  5
12C
 10
-1.40176
 20
5.117808
 30
0.0
 40
0.0
 41
0.0
  0
VERTEX
  8
2
  6
CONTINUOUS
 62
    14
 48
2.0
  5
12D
 10
5.898242
 20
5.117808
 30
0.0
 40
0.0
 41
0.0
  0
SEQEND
  8
0
  5
12E
  0
POLYLINE
  8
2
  6
CONTINUOUS
 62
    14
 48
2.0
  5
12F
 66
     1
 10
0.0
 20
0.0
 30
0.0
 70
   128
  0
VERTEX
  8
2
  6
CONTINUOUS
 62
    14
 48
2.0
  5
130
 10
0.878241
 20
4.667808
 30
0.0
 40
0.0
 41
0.0
  0
VERTEX
  8
2
  6
CONTINUOUS
 62
    14
 48
2.0
  5
131
 10
0.878241
 20
5.117808
 30
0.0
 40
0.0
 41
0.0
  0
SEQEND
  8
0
  5
132
  0
POLYLINE
  8
2
  6
CONTINUOUS
 62
    14
 48
2.0
  5
133
 66
     1
 10
0.0
 20
0.0
 30
0.0
 70
   128
  0
VERTEX
  8
2
  6
CONTINUOUS
 62
    14
 48
2.0
  5
134
 10
3.548242
 20
5.117808
 30
0.0
 40
0.0
 41
0.0
  0
VERTEX
  8
2
  6
CONTINUOUS
 62
    14
 48
2.0
  5
135
 10
3.548242
 20
4.667808
 30
0.0
 40
0.0
 41
0.0
  0
SEQEND
  8
0
  5
136
  0
POLYLINE
  8
2
  6
CONTINUOUS
 62
    14
 48
2.0
  5
137
 66
     1
 10
0.0
 20
0.0
 30
0.0
 70
   128
  0
VERTEX
  8
2
  6
CONTINUOUS
 62
    14
 48
2.0
  5
138
 10
-1.40176
 20
8.51781
 30
0.0
 40
0.0
 41
0.0
  0
VERTEX
  8
2
  6
CONTINUOUS
 62
    14
 48
2.0
  5
139
 10
-1.40176
 20
8.51781
 30
0.0
 40
0.0
 41
0.0
  0
SEQEND
  8
0
  5
13A
  0
CIRCLE
  8
4
  6
CONTINUOUS
 62
   174
 48
2.0
  5
13B
 10
0.98176
 20
8.51781
 30
0.0
 40
0.099998
210
0.0
220
0.0
230
-1.0
  0
CIRCLE
  8
4
  6
CONTINUOUS
 62
   174
 48
2.0
  5
13C
 10
0.98176
 20
7.01781
 30
0.0
 40
0.099999
210
0.0
220
0.0
230
-1.0
  0
ARC
  8
2
  6
CONTINUOUS
 62
    14
 48
2.0
  5
13D
 10
-6.59824
 20
6.297805
 30
0.0
 40
0.7
 50
0.0
 51
90.0
210
0.0
220
0.0
230
-1.0
  0
POLYLINE
  8
2
  6
CONTINUOUS
 62
    14
 48
2.0
  5
13E
 66
     1
 10
0.0
 20
0.0
 30
0.0
 70
   128
  0
VERTEX
  8
2
  6
CONTINUOUS
 62
    14
 48
2.0
  5
13F
 10
5.898242
 20
6.297805
 30
0.0
 40
0.0
 41
0.0
  0
VERTEX
  8
2
  6
CONTINUOUS
 62
    14
 48
2.0
  5
140
 10
5.898242
 20
4.667808
 30
0.0
 40
0.0
 41
0.0
  0
SEQEND
  8
0
  5
141
  0
POLYLINE
  8
2
  6
CONTINUOUS
 62
    14
 48
2.0
  5
142
 66
     1
 10
0.0
 20
0.0
 30
0.0
 70
   128
  0
VERTEX
  8
2
  6
CONTINUOUS
 62
    14
 48
2.0
  5
143
 10
6.59824
 20
6.997805
 30
0.0
 40
0.0
 41
0.0
  0
VERTEX
  8
2
  6
CONTINUOUS
 62
    14
 48
2.0
  5
144
 10
14.93824
 20
6.997805
 30
0.0
 40
0.0
 41
0.0
  0
SEQEND
  8
0
  5
145
  0
ARC
  8
2
  6
CONTINUOUS
 62
    14
 48
2.0
  5
146
 10
-14.93824
 20
6.297805
 30
0.0
 40
0.700002
 50
90.0
 51
180.0
210
0.0
220
0.0
230
-1.0
  0
POLYLINE
  8
2
  6
CONTINUOUS
 62
    14
 48
2.0
  5
147
 66
     1
 10
0.0
 20
0.0
 30
0.0
 70
   128
  0
VERTEX
  8
2
  6
CONTINUOUS
 62
    14
 48
2.0
  5
148
 10
15.638242
 20
6.297805
 30
0.0
 40
0.0
 41
0.0
  0
VERTEX
  8
2
  6
CONTINUOUS
 62
    14
 48
2.0
  5
149
 10
15.638242
 20
4.667804
 30
0.0
 40
0.0
 41
0.0
  0
SEQEND
  8
0
  5
14A
  0
POLYLINE
  8
2
  6
CONTINUOUS
 62
    14
 48
2.0
  5
14B
 66
     1
 10
0.0
 20
0.0
 30
0.0
 70
   128
  0
VERTEX
  8
2
  6
CONTINUOUS
 62
    14
 48
2.0
  5
14C
 10
18.258241
 20
4.667804
 30
0.0
 40
0.0
 41
0.0
  0
VERTEX
  8
2
  6
CONTINUOUS
 62
    14
 48
2.0
  5
14D
 10
18.278743
 20
6.157447
 30
0.0
 40
0.0
 41
0.0
  0
SEQEND
  8
0
  5
14E
  0
ARC
  8
2
  6
CONTINUOUS
 62
    14
 48
2.0
  5
14F
 10
-18.978674
 20
6.147811
 30
0.0
 40
0.700001
 50
0.788732
 51
90.0
210
0.0
220
0.0
230
-1.0
  0
POLYLINE
  8
2
  6
CONTINUOUS
 62
    14
 48
2.0
  5
150
 66
     1
 10
0.0
 20
0.0
 30
0.0
 70
   128
  0
VERTEX
  8
2
  6
CONTINUOUS
 62
    14
 48
2.0
  5
151
 10
18.978674
 20
6.847811
 30
0.0
 40
0.0
 41
0.0
  0
VERTEX
  8
2
  6
CONTINUOUS
 62
    14
 48
2.0
  5
152
 10
19.618241
 20
6.847811
 30
0.0
 40
0.0
 41
0.0
  0
SEQEND
  8
0
  5
153
  0
CIRCLE
  8
4
  6
CONTINUOUS
 62
   174
 48
2.0
  5
154
 10
0.021759
 20
8.497809
 30
0.0
 40
0.080002
210
0.0
220
0.0
230
-1.0
  0
CIRCLE
  8
4
  6
CONTINUOUS
 62
   174
 48
2.0
  5
155
 10
-1.728241
 20
8.497809
 30
0.0
 40
0.080002
210
0.0
220
0.0
230
-1.0
  0
POLYLINE
  8
4
  6
CONTINUOUS
 62
   174
 48
2.0
  5
156
 66
     1
 10
0.0
 20
0.0
 30
0.0
 70
   128
  0
VERTEX
  8
4
  6
CONTINUOUS
 62
   174
 48
2.0
  5
157
 10
3.34824
 20
9.19781
 30
0.0
 40
0.0
 41
0.0
  0
VERTEX
  8
4
  6
CONTINUOUS
 62
   174
 48
2.0
  5
158
 10
3.34824
 20
5.94781
 30
0.0
 40
0.0
 41
0.0
  0
SEQEND
  8
0
  5
159
  0
POLYLINE
  8
2
  6
CONTINUOUS
 62
    14
 48
2.0
  5
15A
 66
     1
 10
0.0
 20
0.0
 30
0.0
 70
   128
  0
VERTEX
  8
2
  6
CONTINUOUS
 62
    14
 48
2.0
  5
15B
 10
-1.40176
 20
5.94781
 30
0.0
 40
0.0
 41
0.0
  0
VERTEX
  8
2
  6
CONTINUOUS
 62
    14
 48
2.0
  5
15C
 10
-1.40176
 20
5.94781
 30
0.0
 40
0.0
 41
0.0
  0
SEQEND
  8
0
  5
15D
  0
POLYLINE
  8
4
  6
CONTINUOUS
 62
   174
 48
2.0
  5
15E
 66
     1
 10
0.0
 20
0.0
 30
0.0
 70
   128
  0
VERTEX
  8
4
  6
CONTINUOUS
 62
   174
 48
2.0
  5
15F
 10
-1.40176
 20
5.94781
 30
0.0
 40
0.0
 41
0.0
  0
VERTEX
  8
4
  6
CONTINUOUS
 62
   174
 48
2.0
  5
160
 10
3.34824
 20
5.94781
 30
0.0
 40
0.0
 41
0.0
  0
SEQEND
  8
0
  5
161
  0
POLYLINE
  8
2
  6
CONTINUOUS
 62
    14
 48
2.0
  5
162
 66
     1
 10
0.0
 20
0.0
 30
0.0
 70
   128
  0
VERTEX
  8
2
  6
CONTINUOUS
 62
    14
 48
2.0
  5
163
 10
1.65424
 20
4.667808
 30
0.0
 40
0.0
 41
0.0
  0
VERTEX
  8
2
  6
CONTINUOUS
 62
    14
 48
2.0
  5
164
 10
1.65424
 20
4.667808
 30
0.0
 40
0.0
 41
0.0
  0
SEQEND
  8
0
  5
165
  0
POLYLINE
  8
2
  6
CONTINUOUS
 62
    14
 48
2.0
  5
166
 66
     1
 10
0.0
 20
0.0
 30
0.0
 70
   128
  0
VERTEX
  8
2
  6
CONTINUOUS
 62
    14
 48
2.0
  5
167
 10
1.65424
 20
6.467806
 30
0.0
 40
0.0
 41
0.0
  0
VERTEX
  8
2
  6
CONTINUOUS
 62
    14
 48
2.0
  5
168
 10
1.65424
 20
6.467806
 30
0.0
 40
0.0
 41
0.0
  0
SEQEND
  8
0
  5
169
  0
POLYLINE
  8
2
  6
CONTINUOUS
 62
    14
 48
2.0
  5
16A
 66
     1
 10
0.0
 20
0.0
 30
0.0
 70
   128
  0
VERTEX
  8
2
  6
CONTINUOUS
 62
    14
 48
2.0
  5
16B
 10
1.65424
 20
8.155806
 30
0.0
 40
0.0
 41
0.0
  0
VERTEX
  8
2
  6
CONTINUOUS
 62
    14
 48
2.0
  5
16C
 10
1.65424
 20
8.155806
 30
0.0
 40
0.0
 41
0.0
  0
SEQEND
  8
0
  5
16D
  0
ARC
  8
4
  6
CONTINUOUS
 62
   174
 48
2.0
  5
16E
 10
-1.65424
 20
8.155806
 30
0.0
 40
0.156002
 50
0.0
 51
180.0
210
0.0
220
0.0
230
-1.0
  0
ARC
  8
4
  6
CONTINUOUS
 62
   174
 48
2.0
  5
16F
 10
-1.65424
 20
6.467806
 30
0.0
 40
0.155998
 50
180.0
 51
360.0
210
0.0
220
0.0
230
-1.0
  0
POLYLINE
  8
4
  6
CONTINUOUS
 62
   174
 48
2.0
  5
170
 66
     1
 10
0.0
 20
0.0
 30
0.0
 70
   128
  0
VERTEX
  8
4
  6
CONTINUOUS
 62
   174
 48
2.0
  5
171
 10
1.498242
 20
8.155806
 30
0.0
 40
0.0
 41
0.0
  0
VERTEX
  8
4
  6
CONTINUOUS
 62
   174
 48
2.0
  5
172
 10
1.498242
 20
6.467806
 30
0.0
 40
0.0
 41
0.0
  0
SEQEND
  8
0
  5
173
  0
POLYLINE
  8
4
  6
CONTINUOUS
 62
   174
 48
2.0
  5
174
 66
     1
 10
0.0
 20
0.0
 30
0.0
 70
   128
  0
VERTEX
  8
4
  6
CONTINUOUS
 62
   174
 48
2.0
  5
175
 10
1.810242
 20
8.155806
 30
0.0
 40
0.0
 41
0.0
  0
VERTEX
  8
4
  6
CONTINUOUS
 62
   174
 48
2.0
  5
176
 10
1.810242
 20
6.467806
 30
0.0
 40
0.0
 41
0.0
  0
SEQEND
  8
0
  5
177
  0
POLYLINE
  8
2
  6
CONTINUOUS
 62
    14
 48
2.0
  5
178
 66
     1
 10
0.0
 20
0.0
 30
0.0
 70
   128
  0
VERTEX
  8
2
  6
CONTINUOUS
 62
    14
 48
2.0
  5
179
 10
2.84124
 20
6.467806
 30
0.0
 40
0.0
 41
0.0
  0
VERTEX
  8
2
  6
CONTINUOUS
 62
    14
 48
2.0
  5
17A
 10
2.84124
 20
6.467806
 30
0.0
 40
0.0
 41
0.0
  0
SEQEND
  8
0
  5
17B
  0
POLYLINE
  8
2
  6
CONTINUOUS
 62
    14
 48
2.0
  5
17C
 66
     1
 10
0.0
 20
0.0
 30
0.0
 70
   128
  0
VERTEX
  8
2
  6
CONTINUOUS
 62
    14
 48
2.0
  5
17D
 10
2.84124
 20
8.155806
 30
0.0
 40
0.0
 41
0.0
  0
VERTEX
  8
2
  6
CONTINUOUS
 62
    14
 48
2.0
  5
17E
 10
2.84124
 20
8.155806
 30
0.0
 40
0.0
 41
0.0
  0
SEQEND
  8
0
  5
17F
  0
ARC
  8
4
  6
CONTINUOUS
 62
   174
 48
2.0
  5
180
 10
-2.84124
 20
8.155806
 30
0.0
 40
0.156002
 50
0.0
 51
180.0
210
0.0
220
0.0
230
-1.0
  0
ARC
  8
4
  6
CONTINUOUS
 62
   174
 48
2.0
  5
181
 10
-2.84124
 20
6.467806
 30
0.0
 40
0.155999
 50
180.0
 51
360.0
210
0.0
220
0.0
230
-1.0
  0
POLYLINE
  8
4
  6
CONTINUOUS
 62
   174
 48
2.0
  5
182
 66
     1
 10
0.0
 20
0.0
 30
0.0
 70
   128
  0
VERTEX
  8
4
  6
CONTINUOUS
 62
   174
 48
2.0
  5
183
 10
2.685242
 20
6.467806
 30
0.0
 40
0.0
 41
0.0
  0
VERTEX
  8
4
  6
CONTINUOUS
 62
   174
 48
2.0
  5
184
 10
2.685242
 20
8.155806
 30
0.0
 40
0.0
 41
0.0
  0
SEQEND
  8
0
  5
185
  0
POLYLINE
  8
4
  6
CONTINUOUS
 62
   174
 48
2.0
  5
186
 66
     1
 10
0.0
 20
0.0
 30
0.0
 70
   128
  0
VERTEX
  8
4
  6
CONTINUOUS
 62
   174
 48
2.0
  5
187
 10
2.997242
 20
6.467806
 30
0.0
 40
0.0
 41
0.0
  0
VERTEX
  8
4
  6
CONTINUOUS
 62
   174
 48
2.0
  5
188
 10
2.997242
 20
8.155806
 30
0.0
 40
0.0
 41
0.0
  0
SEQEND
  8
0
  5
189
  0
CIRCLE
  8
4
  6
CONTINUOUS
 62
   174
 48
2.0
  5
18A
 10
-2.247742
 20
6.736808
 30
0.0
 40
0.099998
210
0.0
220
0.0
230
-1.0
  0
CIRCLE
  8
4
  6
CONTINUOUS
 62
   174
 48
2.0
  5
18B
 10
-2.247742
 20
7.886809
 30
0.0
 40
0.099999
210
0.0
220
0.0
230
-1.0
  0
POLYLINE
  8
2
  6
CONTINUOUS
 62
    14
 48
2.0
  5
18C
 66
     1
 10
0.0
 20
0.0
 30
0.0
 70
   128
  0
VERTEX
  8
2
  6
CONTINUOUS
 62
    14
 48
2.0
  5
18D
 10
-0.381759
 20
9.747809
 30
0.0
 40
0.0
 41
0.0
  0
VERTEX
  8
2
  6
CONTINUOUS
 62
    14
 48
2.0
  5
18E
 10
-0.381759
 20
9.747809
 30
0.0
 40
0.0
 41
0.0
  0
SEQEND
  8
0
  5
18F
  0
POLYLINE
  8
2
  6
CONTINUOUS
 62
    14
 48
2.0
  5
190
 66
     1
 10
0.0
 20
0.0
 30
0.0
 70
   128
  0
VERTEX
  8
2
  6
CONTINUOUS
 62
    14
 48
2.0
  5
191
 10
-0.381759
 20
9.547809
 30
0.0
 40
0.0
 41
0.0
  0
VERTEX
  8
2
  6
CONTINUOUS
 62
    14
 48
2.0
  5
192
 10
-0.381759
 20
9.547809
 30
0.0
 40
0.0
 41
0.0
  0
SEQEND
  8
0
  5
193
  0
POLYLINE
  8
2
  6
CONTINUOUS
 62
    14
 48
2.0
  5
194
 66
     1
 10
0.0
 20
0.0
 30
0.0
 70
   128
  0
VERTEX
  8
2
  6
CONTINUOUS
 62
    14
 48
2.0
  5
195
 10
19.618241
 20
9.547809
 30
0.0
 40
0.0
 41
0.0
  0
VERTEX
  8
2
  6
CONTINUOUS
 62
    14
 48
2.0
  5
196
 10
-0.381759
 20
9.547809
 30
0.0
 40
0.0
 41
0.0
  0
SEQEND
  8
0
  5
197
  0
POLYLINE
  8
2
  6
CONTINUOUS
 62
    14
 48
2.0
  5
198
 66
     1
 10
0.0
 20
0.0
 30
0.0
 70
   128
  0
VERTEX
  8
2
  6
CONTINUOUS
 62
    14
 48
2.0
  5
199
 10
19.618241
 20
9.747809
 30
0.0
 40
0.0
 41
0.0
  0
VERTEX
  8
2
  6
CONTINUOUS
 62
    14
 48
2.0
  5
19A
 10
-0.381759
 20
9.747809
 30
0.0
 40
0.0
 41
0.0
  0
SEQEND
  8
0
  5
19B
  0
POLYLINE
  8
2
  6
CONTINUOUS
 62
    14
 48
2.0
  5
19C
 66
     1
 10
0.0
 20
0.0
 30
0.0
 70
   128
  0
VERTEX
  8
2
  6
CONTINUOUS
 62
    14
 48
2.0
  5
19D
 10
-0.381759
 20
9.747809
 30
0.0
 40
0.0
 41
0.0
  0
VERTEX
  8
2
  6
CONTINUOUS
 62
    14
 48
2.0
  5
19E
 10
-0.381759
 20
9.19781
 30
0.0
 40
0.0
 41
0.0
  0
SEQEND
  8
0
  5
19F
  0
POLYLINE
  8
2
  6
CONTINUOUS
 62
    14
 48
2.0
  5
1A0
 66
     1
 10
0.0
 20
0.0
 30
0.0
 70
   128
  0
VERTEX
  8
2
  6
CONTINUOUS
 62
    14
 48
2.0
  5
1A1
 10
19.618241
 20
9.747809
 30
0.0
 40
0.0
 41
0.0
  0
VERTEX
  8
2
  6
CONTINUOUS
 62
    14
 48
2.0
  5
1A2
 10
19.618241
 20
9.19781
 30
0.0
 40
0.0
 41
0.0
  0
SEQEND
  8
0
  5
1A3
  0
CIRCLE
  8
2
  6
CONTINUOUS
 62
    14
 48
2.0
  5
1A4
 10
-17.76824
 20
8.51781
 30
0.0
 40
0.099998
210
0.0
220
0.0
230
-1.0
  0
CIRCLE
  8
2
  6
CONTINUOUS
 62
    14
 48
2.0
  5
1A5
 10
-17.76824
 20
7.01781
 30
0.0
 40
0.099999
210
0.0
220
0.0
230
-1.0
  0
POLYLINE
  8
7
  6
CONTINUOUS
 62
   214
 48
2.0
  5
1A6
 66
     1
 10
0.0
 20
0.0
 30
0.0
 70
   128
  0
VERTEX
  8
7
  6
CONTINUOUS
 62
   214
 48
2.0
  5
1A7
 10
-0.527208
 20
7.142623
 30
0.0
 40
0.0
 41
0.0
  0
VERTEX
  8
7
  6
CONTINUOUS
 62
   214
 48
2.0
  5
1A8
 10
-0.777208
 20
7.142676
 30
0.0
 40
0.0
 41
0.0
  0
SEQEND
  8
0
  5
1A9
  0
POLYLINE
  8
7
  6
CONTINUOUS
 62
   214
 48
2.0
  5
1AA
 66
     1
 10
0.0
 20
0.0
 30
0.0
 70
   128
  0
VERTEX
  8
7
  6
CONTINUOUS
 62
   214
 48
2.0
  5
1AB
 10
-1.027208
 20
7.142729
 30
0.0
 40
0.0
 41
0.0
  0
VERTEX
  8
7
  6
CONTINUOUS
 62
   214
 48
2.0
  5
1AC
 10
-1.277208
 20
7.142783
 30
0.0
 40
0.0
 41
0.0
  0
SEQEND
  8
0
  5
1AD
  0
POLYLINE
  8
7
  6
CONTINUOUS
 62
   214
 48
2.0
  5
1AE
 66
     1
 10
0.0
 20
0.0
 30
0.0
 70
   128
  0
VERTEX
  8
7
  6
CONTINUOUS
 62
   214
 48
2.0
  5
1AF
 10
-0.277137
 20
7.476073
 30
0.0
 40
0.0
 41
0.0
  0
VERTEX
  8
7
  6
CONTINUOUS
 62
   214
 48
2.0
  5
1B0
 10
-0.527137
 20
7.476126
 30
0.0
 40
0.0
 41
0.0
  0
SEQEND
  8
0
  5
1B1
  0
POLYLINE
  8
7
  6
CONTINUOUS
 62
   214
 48
2.0
  5
1B2
 66
     1
 10
0.0
 20
0.0
 30
0.0
 70
   128
  0
VERTEX
  8
7
  6
CONTINUOUS
 62
   214
 48
2.0
  5
1B3
 10
-0.777137
 20
7.476176
 30
0.0
 40
0.0
 41
0.0
  0
VERTEX
  8
7
  6
CONTINUOUS
 62
   214
 48
2.0
  5
1B4
 10
-1.027137
 20
7.476229
 30
0.0
 40
0.0
 41
0.0
  0
SEQEND
  8
0
  5
1B5
  0
POLYLINE
  8
7
  6
CONTINUOUS
 62
   214
 48
2.0
  5
1B6
 66
     1
 10
0.0
 20
0.0
 30
0.0
 70
   128
  0
VERTEX
  8
7
  6
CONTINUOUS
 62
   214
 48
2.0
  5
1B7
 10
1.897818
 20
7.267096
 30
0.0
 40
0.0
 41
0.0
  0
VERTEX
  8
7
  6
CONTINUOUS
 62
   214
 48
2.0
  5
1B8
 10
2.147818
 20
7.267043
 30
0.0
 40
0.0
 41
0.0
  0
SEQEND
  8
0
  5
1B9
  0
POLYLINE
  8
7
  6
CONTINUOUS
 62
   214
 48
2.0
  5
1BA
 66
     1
 10
0.0
 20
0.0
 30
0.0
 70
   128
  0
VERTEX
  8
7
  6
CONTINUOUS
 62
   214
 48
2.0
  5
1BB
 10
-1.277217
 20
7.101283
 30
0.0
 40
0.0
 41
0.0
  0
VERTEX
  8
7
  6
CONTINUOUS
 62
   214
 48
2.0
  5
1BC
 10
-1.027217
 20
7.101229
 30
0.0
 40
0.0
 41
0.0
  0
SEQEND
  8
0
  5
1BD
  0
POLYLINE
  8
7
  6
CONTINUOUS
 62
   214
 48
2.0
  5
1BE
 66
     1
 10
0.0
 20
0.0
 30
0.0
 70
   128
  0
VERTEX
  8
7
  6
CONTINUOUS
 62
   214
 48
2.0
  5
1BF
 10
-1.276935
 20
8.434283
 30
0.0
 40
0.0
 41
0.0
  0
VERTEX
  8
7
  6
CONTINUOUS
 62
   214
 48
2.0
  5
1C0
 10
-1.026935
 20
8.434229
 30
0.0
 40
0.0
 41
0.0
  0
SEQEND
  8
0
  5
1C1
  0
POLYLINE
  8
7
  6
CONTINUOUS
 62
   214
 48
2.0
  5
1C2
 66
     1
 10
0.0
 20
0.0
 30
0.0
 70
   128
  0
VERTEX
  8
7
  6
CONTINUOUS
 62
   214
 48
2.0
  5
1C3
 10
-1.277217
 20
7.101283
 30
0.0
 40
0.0
 41
0.0
  0
VERTEX
  8
7
  6
CONTINUOUS
 62
   214
 48
2.0
  5
1C4
 10
-1.276935
 20
8.434283
 30
0.0
 40
0.0
 41
0.0
  0
SEQEND
  8
0
  5
1C5
  0
POLYLINE
  8
7
  6
CONTINUOUS
 62
   214
 48
2.0
  5
1C6
 66
     1
 10
0.0
 20
0.0
 30
0.0
 70
   128
  0
VERTEX
  8
7
  6
CONTINUOUS
 62
   214
 48
2.0
  5
1C7
 10
-1.276926
 20
8.476283
 30
0.0
 40
0.0
 41
0.0
  0
VERTEX
  8
7
  6
CONTINUOUS
 62
   214
 48
2.0
  5
1C8
 10
-1.026927
 20
8.476229
 30
0.0
 40
0.0
 41
0.0
  0
SEQEND
  8
0
  5
1C9
  0
POLYLINE
  8
7
  6
CONTINUOUS
 62
   214
 48
2.0
  5
1CA
 66
     1
 10
0.0
 20
0.0
 30
0.0
 70
   128
  0
VERTEX
  8
7
  6
CONTINUOUS
 62
   214
 48
2.0
  5
1CB
 10
-0.776927
 20
8.47618
 30
0.0
 40
0.0
 41
0.0
  0
VERTEX
  8
7
  6
CONTINUOUS
 62
   214
 48
2.0
  5
1CC
 10
-0.526927
 20
8.476126
 30
0.0
 40
0.0
 41
0.0
  0
SEQEND
  8
0
  5
1CD
  0
POLYLINE
  8
7
  6
CONTINUOUS
 62
   214
 48
2.0
  5
1CE
 66
     1
 10
0.0
 20
0.0
 30
0.0
 70
   128
  0
VERTEX
  8
7
  6
CONTINUOUS
 62
   214
 48
2.0
  5
1CF
 10
-0.777217
 20
7.101176
 30
0.0
 40
0.0
 41
0.0
  0
VERTEX
  8
7
  6
CONTINUOUS
 62
   214
 48
2.0
  5
1D0
 10
-0.527217
 20
7.101123
 30
0.0
 40
0.0
 41
0.0
  0
SEQEND
  8
0
  5
1D1
  0
POLYLINE
  8
7
  6
CONTINUOUS
 62
   214
 48
2.0
  5
1D2
 66
     1
 10
0.0
 20
0.0
 30
0.0
 70
   128
  0
VERTEX
  8
7
  6
CONTINUOUS
 62
   214
 48
2.0
  5
1D3
 10
-1.026935
 20
8.434229
 30
0.0
 40
0.0
 41
0.0
  0
VERTEX
  8
7
  6
CONTINUOUS
 62
   214
 48
2.0
  5
1D4
 10
-1.027217
 20
7.101229
 30
0.0
 40
0.0
 41
0.0
  0
SEQEND
  8
0
  5
1D5
  0
POLYLINE
  8
7
  6
CONTINUOUS
 62
   214
 48
2.0
  5
1D6
 66
     1
 10
0.0
 20
0.0
 30
0.0
 70
   128
  0
VERTEX
  8
7
  6
CONTINUOUS
 62
   214
 48
2.0
  5
1D7
 10
-0.776935
 20
8.434176
 30
0.0
 40
0.0
 41
0.0
  0
VERTEX
  8
7
  6
CONTINUOUS
 62
   214
 48
2.0
  5
1D8
 10
-0.526935
 20
8.434123
 30
0.0
 40
0.0
 41
0.0
  0
SEQEND
  8
0
  5
1D9
  0
POLYLINE
  8
7
  6
CONTINUOUS
 62
   214
 48
2.0
  5
1DA
 66
     1
 10
0.0
 20
0.0
 30
0.0
 70
   128
  0
VERTEX
  8
7
  6
CONTINUOUS
 62
   214
 48
2.0
  5
1DB
 10
-0.776935
 20
8.434176
 30
0.0
 40
0.0
 41
0.0
  0
VERTEX
  8
7
  6
CONTINUOUS
 62
   214
 48
2.0
  5
1DC
 10
-0.777217
 20
7.101176
 30
0.0
 40
0.0
 41
0.0
  0
SEQEND
  8
0
  5
1DD
  0
POLYLINE
  8
7
  6
CONTINUOUS
 62
   214
 48
2.0
  5
1DE
 66
     1
 10
0.0
 20
0.0
 30
0.0
 70
   128
  0
VERTEX
  8
7
  6
CONTINUOUS
 62
   214
 48
2.0
  5
1DF
 10
-0.526935
 20
8.434123
 30
0.0
 40
0.0
 41
0.0
  0
VERTEX
  8
7
  6
CONTINUOUS
 62
   214
 48
2.0
  5
1E0
 10
-0.527217
 20
7.101123
 30
0.0
 40
0.0
 41
0.0
  0
SEQEND
  8
0
  5
1E1
  0
POLYLINE
  8
7
  6
CONTINUOUS
 62
   214
 48
2.0
  5
1E2
 66
     1
 10
0.0
 20
0.0
 30
0.0
 70
   128
  0
VERTEX
  8
7
  6
CONTINUOUS
 62
   214
 48
2.0
  5
1E3
 10
1.89803
 20
8.267096
 30
0.0
 40
0.0
 41
0.0
  0
VERTEX
  8
7
  6
CONTINUOUS
 62
   214
 48
2.0
  5
1E4
 10
2.14803
 20
8.267043
 30
0.0
 40
0.0
 41
0.0
  0
SEQEND
  8
0
  5
1E5
  0
POLYLINE
  8
7
  6
CONTINUOUS
 62
   214
 48
2.0
  5
1E6
 66
     1
 10
0.0
 20
0.0
 30
0.0
 70
   128
  0
VERTEX
  8
7
  6
CONTINUOUS
 62
   214
 48
2.0
  5
1E7
 10
1.89803
 20
8.267096
 30
0.0
 40
0.0
 41
0.0
  0
VERTEX
  8
7
  6
CONTINUOUS
 62
   214
 48
2.0
  5
1E8
 10
1.897818
 20
7.267096
 30
0.0
 40
0.0
 41
0.0
  0
SEQEND
  8
0
  5
1E9
  0
POLYLINE
  8
7
  6
CONTINUOUS
 62
   214
 48
2.0
  5
1EA
 66
     1
 10
0.0
 20
0.0
 30
0.0
 70
   128
  0
VERTEX
  8
7
  6
CONTINUOUS
 62
   214
 48
2.0
  5
1EB
 10
2.14803
 20
8.267043
 30
0.0
 40
0.0
 41
0.0
  0
VERTEX
  8
7
  6
CONTINUOUS
 62
   214
 48
2.0
  5
1EC
 10
2.147818
 20
7.267043
 30
0.0
 40
0.0
 41
0.0
  0
SEQEND
  8
0
  5
1ED
  0
POLYLINE
  8
5
  6
CONTINUOUS
 62
    54
 48
2.0
  5
1EE
 66
     1
 10
0.0
 20
0.0
 30
0.0
 70
   128
  0
VERTEX
  8
5
  6
CONTINUOUS
 62
    54
 48
2.0
  5
1EF
 10
2.14795
 20
7.892043
 30
0.0
 40
0.0
 41
0.0
  0
VERTEX
  8
5
  6
CONTINUOUS
 62
    54
 48
2.0
  5
1F0
 10
1.179951
 20
7.89244
 30
0.0
 40
0.0
 41
0.0
  0
SEQEND
  8
0
  5
1F1
  0
POLYLINE
  8
5
  6
CONTINUOUS
 62
    54
 48
2.0
  5
1F2
 66
     1
 10
0.0
 20
0.0
 30
0.0
 70
   128
  0
VERTEX
  8
5
  6
CONTINUOUS
 62
    54
 48
2.0
  5
1F3
 10
1.180897
 20
7.64244
 30
0.0
 40
0.0
 41
0.0
  0
VERTEX
  8
5
  6
CONTINUOUS
 62
    54
 48
2.0
  5
1F4
 10
2.148899
 20
7.642043
 30
0.0
 40
0.0
 41
0.0
  0
SEQEND
  8
0
  5
1F5
  0
POLYLINE
  8
5
  6
CONTINUOUS
 62
    54
 48
2.0
  5
1F6
 66
     1
 10
0.0
 20
0.0
 30
0.0
 70
   128
  0
VERTEX
  8
5
  6
CONTINUOUS
 62
    54
 48
2.0
  5
1F7
 10
2.147977
 20
8.017043
 30
0.0
 40
0.0
 41
0.0
  0
VERTEX
  8
5
  6
CONTINUOUS
 62
    54
 48
2.0
  5
1F8
 10
3.662976
 20
8.0167
 30
0.0
 40
0.0
 41
0.0
  0
SEQEND
  8
0
  5
1F9
  0
POLYLINE
  8
5
  6
CONTINUOUS
 62
    54
 48
2.0
  5
1FA
 66
     1
 10
0.0
 20
0.0
 30
0.0
 70
   128
  0
VERTEX
  8
5
  6
CONTINUOUS
 62
    54
 48
2.0
  5
1FB
 10
2.147871
 20
7.517043
 30
0.0
 40
0.0
 41
0.0
  0
VERTEX
  8
5
  6
CONTINUOUS
 62
    54
 48
2.0
  5
1FC
 10
3.662869
 20
7.5167
 30
0.0
 40
0.0
 41
0.0
  0
SEQEND
  8
0
  5
1FD
  0
POLYLINE
  8
7
  6
CONTINUOUS
 62
   214
 48
2.0
  5
1FE
 66
     1
 10
0.0
 20
0.0
 30
0.0
 70
   128
  0
VERTEX
  8
7
  6
CONTINUOUS
 62
   214
 48
2.0
  5
1FF
 10
1.898037
 20
8.308597
 30
0.0
 40
0.0
 41
0.0
  0
VERTEX
  8
7
  6
CONTINUOUS
 62
   214
 48
2.0
  5
200
 10
2.148037
 20
8.308543
 30
0.0
 40
0.0
 41
0.0
  0
SEQEND
  8
0
  5
201
  0
POLYLINE
  8
7
  6
CONTINUOUS
 62
   214
 48
2.0
  5
202
 66
     1
 10
0.0
 20
0.0
 30
0.0
 70
   128
  0
VERTEX
  8
7
  6
CONTINUOUS
 62
   214
 48
2.0
  5
203
 10
-1.027006
 20
8.101229
 30
0.0
 40
0.0
 41
0.0
  0
VERTEX
  8
7
  6
CONTINUOUS
 62
   214
 48
2.0
  5
204
 10
-0.777006
 20
8.101176
 30
0.0
 40
0.0
 41
0.0
  0
SEQEND
  8
0
  5
205
  0
POLYLINE
  8
7
  6
CONTINUOUS
 62
   214
 48
2.0
  5
206
 66
     1
 10
0.0
 20
0.0
 30
0.0
 70
   128
  0
VERTEX
  8
7
  6
CONTINUOUS
 62
   214
 48
2.0
  5
207
 10
-0.527006
 20
8.101126
 30
0.0
 40
0.0
 41
0.0
  0
VERTEX
  8
7
  6
CONTINUOUS
 62
   214
 48
2.0
  5
208
 10
-0.277006
 20
8.101073
 30
0.0
 40
0.0
 41
0.0
  0
SEQEND
  8
0
  5
209
  0
POLYLINE
  8
7
  6
CONTINUOUS
 62
   214
 48
2.0
  5
20A
 66
     1
 10
0.0
 20
0.0
 30
0.0
 70
   128
  0
VERTEX
  8
7
  6
CONTINUOUS
 62
   214
 48
2.0
  5
20B
 10
-1.027147
 20
7.434229
 30
0.0
 40
0.0
 41
0.0
  0
VERTEX
  8
7
  6
CONTINUOUS
 62
   214
 48
2.0
  5
20C
 10
-0.777147
 20
7.434176
 30
0.0
 40
0.0
 41
0.0
  0
SEQEND
  8
0
  5
20D
  0
POLYLINE
  8
7
  6
CONTINUOUS
 62
   214
 48
2.0
  5
20E
 66
     1
 10
0.0
 20
0.0
 30
0.0
 70
   128
  0
VERTEX
  8
7
  6
CONTINUOUS
 62
   214
 48
2.0
  5
20F
 10
-0.527147
 20
7.434123
 30
0.0
 40
0.0
 41
0.0
  0
VERTEX
  8
7
  6
CONTINUOUS
 62
   214
 48
2.0
  5
210
 10
-0.277147
 20
7.43407
 30
0.0
 40
0.0
 41
0.0
  0
SEQEND
  8
0
  5
211
  0
POLYLINE
  8
7
  6
CONTINUOUS
 62
   214
 48
2.0
  5
212
 66
     1
 10
0.0
 20
0.0
 30
0.0
 70
   128
  0
VERTEX
  8
7
  6
CONTINUOUS
 62
   214
 48
2.0
  5
213
 10
-1.026996
 20
8.142729
 30
0.0
 40
0.0
 41
0.0
  0
VERTEX
  8
7
  6
CONTINUOUS
 62
   214
 48
2.0
  5
214
 10
-0.776996
 20
8.142676
 30
0.0
 40
0.0
 41
0.0
  0
SEQEND
  8
0
  5
215
  0
POLYLINE
  8
7
  6
CONTINUOUS
 62
   214
 48
2.0
  5
216
 66
     1
 10
0.0
 20
0.0
 30
0.0
 70
   128
  0
VERTEX
  8
7
  6
CONTINUOUS
 62
   214
 48
2.0
  5
217
 10
-0.526996
 20
8.142623
 30
0.0
 40
0.0
 41
0.0
  0
VERTEX
  8
7
  6
CONTINUOUS
 62
   214
 48
2.0
  5
218
 10
-0.276996
 20
8.142574
 30
0.0
 40
0.0
 41
0.0
  0
SEQEND
  8
0
  5
219
  0
POLYLINE
  8
7
  6
CONTINUOUS
 62
   214
 48
2.0
  5
21A
 66
     1
 10
0.0
 20
0.0
 30
0.0
 70
   128
  0
VERTEX
  8
7
  6
CONTINUOUS
 62
   214
 48
2.0
  5
21B
 10
-0.277006
 20
8.101073
 30
0.0
 40
0.0
 41
0.0
  0
VERTEX
  8
7
  6
CONTINUOUS
 62
   214
 48
2.0
  5
21C
 10
-0.277147
 20
7.43407
 30
0.0
 40
0.0
 41
0.0
  0
SEQEND
  8
0
  5
21D
  0
POLYLINE
  8
4
  6
CONTINUOUS
 62
   174
 48
2.0
  5
21E
 66
     1
 10
0.0
 20
0.0
 30
0.0
 70
   128
  0
VERTEX
  8
4
  6
CONTINUOUS
 62
   174
 48
2.0
  5
21F
 10
-1.65176
 20
9.197864
 30
0.0
 40
0.0
 41
0.0
  0
VERTEX
  8
4
  6
CONTINUOUS
 62
   174
 48
2.0
  5
220
 10
-1.652446
 20
5.947863
 30
0.0
 40
0.0
 41
0.0
  0
SEQEND
  8
0
  5
221
  0
POLYLINE
  8
2
  6
CONTINUOUS
 62
    14
 48
0.805031
  5
222
 66
     1
 10
0.0
 20
0.0
 30
0.0
 70
   128
  0
VERTEX
  8
2
  6
CONTINUOUS
 62
    14
 48
0.805031
  5
223
 10
3.34824
 20
9.19781
 30
0.0
 40
0.0
 41
0.0
  0
VERTEX
  8
2
  6
CONTINUOUS
 62
    14
 48
0.805031
  5
224
 10
3.59824
 20
9.196757
 30
0.0
 40
0.0
 41
0.0
  0
SEQEND
  8
0
  5
225
  0
POLYLINE
  8
4
  6
CONTINUOUS
 62
   174
 48
2.0
  5
226
 66
     1
 10
0.0
 20
0.0
 30
0.0
 70
   128
  0
VERTEX
  8
4
  6
CONTINUOUS
 62
   174
 48
2.0
  5
227
 10
3.59824
 20
9.196757
 30
0.0
 40
0.0
 41
0.0
  0
VERTEX
  8
4
  6
CONTINUOUS
 62
   174
 48
2.0
  5
228
 10
3.597554
 20
5.946753
 30
0.0
 40
0.0
 41
0.0
  0
SEQEND
  8
0
  5
229
  0
POLYLINE
  8
4
  6
CONTINUOUS
 62
   174
 48
2.0
  5
22A
 66
     1
 10
0.0
 20
0.0
 30
0.0
 70
   128
  0
VERTEX
  8
4
  6
CONTINUOUS
 62
   174
 48
2.0
  5
22B
 10
-1.652446
 20
5.947863
 30
0.0
 40
0.0
 41
0.0
  0
VERTEX
  8
4
  6
CONTINUOUS
 62
   174
 48
2.0
  5
22C
 10
-1.40176
 20
5.94781
 30
0.0
 40
0.0
 41
0.0
  0
SEQEND
  8
0
  5
22D
  0
POLYLINE
  8
4
  6
CONTINUOUS
 62
   174
 48
2.0
  5
22E
 66
     1
 10
0.0
 20
0.0
 30
0.0
 70
   128
  0
VERTEX
  8
4
  6
CONTINUOUS
 62
   174
 48
2.0
  5
22F
 10
3.597554
 20
5.946753
 30
0.0
 40
0.0
 41
0.0
  0
VERTEX
  8
4
  6
CONTINUOUS
 62
   174
 48
2.0
  5
230
 10
3.34824
 20
5.94781
 30
0.0
 40
0.0
 41
0.0
  0
SEQEND
  8
0
  5
231
  0
POLYLINE
  8
1
  6
CENTER
 62
   250
  5
232
 66
     1
 10
0.0
 20
0.0
 30
0.0
 70
   128
  0
VERTEX
  8
1
  6
CENTER
 62
   250
  5
233
 10
-2.98176
 20
7.76781
 30
0.0
 40
0.0
 41
0.0
  0
VERTEX
  8
1
  6
CENTER
 62
   250
  5
234
 10
23.01824
 20
7.76781
 30
0.0
 40
0.0
 41
0.0
  0
SEQEND
  8
0
  5
235
  0
POLYLINE
  8
5
  6
CONTINUOUS
 62
    54
 48
2.0
  5
236
 66
     1
 10
0.0
 20
0.0
 30
0.0
 70
   128
  0
VERTEX
  8
5
  6
CONTINUOUS
 62
    54
 48
2.0
  5
237
 10
-1.27705
 20
7.89302
 30
0.0
 40
0.0
 41
0.0
  0
VERTEX
  8
5
  6
CONTINUOUS
 62
    54
 48
2.0
  5
238
 10
0.565451
 20
7.89302
 30
0.0
 40
0.0
 41
0.0
  0
SEQEND
  8
0
  5
239
  0
POLYLINE
  8
5
  6
CONTINUOUS
 62
    54
 48
2.0
  5
23A
 66
     1
 10
0.0
 20
0.0
 30
0.0
 70
   128
  0
VERTEX
  8
5
  6
CONTINUOUS
 62
    54
 48
2.0
  5
23B
 10
-1.277103
 20
7.64302
 30
0.0
 40
0.0
 41
0.0
  0
VERTEX
  8
5
  6
CONTINUOUS
 62
    54
 48
2.0
  5
23C
 10
0.565398
 20
7.64302
 30
0.0
 40
0.0
 41
0.0
  0
SEQEND
  8
0
  5
23D
  0
POLYLINE
  8
5
  6
CONTINUOUS
 62
    54
 48
2.0
  5
23E
 66
     1
 10
0.0
 20
0.0
 30
0.0
 70
   128
  0
VERTEX
  8
5
  6
CONTINUOUS
 62
    54
 48
2.0
  5
23F
 10
0.565451
 20
7.89302
 30
0.0
 40
0.0
 41
0.0
  0
VERTEX
  8
5
  6
CONTINUOUS
 62
    54
 48
2.0
  5
240
 10
0.565398
 20
7.64302
 30
0.0
 40
0.0
 41
0.0
  0
SEQEND
  8
0
  5
241
  0
POLYLINE
  8
5
  6
CONTINUOUS
 62
    54
 48
2.0
  5
242
 66
     1
 10
0.0
 20
0.0
 30
0.0
 70
   128
  0
VERTEX
  8
5
  6
CONTINUOUS
 62
    54
 48
2.0
  5
243
 10
1.179951
 20
7.89244
 30
0.0
 40
0.0
 41
0.0
  0
VERTEX
  8
5
  6
CONTINUOUS
 62
    54
 48
2.0
  5
244
 10
1.180897
 20
7.64244
 30
0.0
 40
0.0
 41
0.0
  0
SEQEND
  8
0
  5
245
  0
POLYLINE
  8
7
  6
CONTINUOUS
 62
   214
 48
2.0
  5
246
 66
     1
 10
0.0
 20
0.0
 30
0.0
 70
   128
  0
VERTEX
  8
7
  6
CONTINUOUS
 62
   214
 48
2.0
  5
247
 10
-1.276935
 20
8.434283
 30
0.0
 40
0.0
 41
0.0
  0
VERTEX
  8
7
  6
CONTINUOUS
 62
   214
 48
2.0
  5
248
 10
-1.276926
 20
8.476283
 30
0.0
 40
0.0
 41
0.0
  0
SEQEND
  8
0
  5
249
  0
POLYLINE
  8
7
  6
CONTINUOUS
 62
   214
 48
2.0
  5
24A
 66
     1
 10
0.0
 20
0.0
 30
0.0
 70
   128
  0
VERTEX
  8
7
  6
CONTINUOUS
 62
   214
 48
2.0
  5
24B
 10
-1.026935
 20
8.434229
 30
0.0
 40
0.0
 41
0.0
  0
VERTEX
  8
7
  6
CONTINUOUS
 62
   214
 48
2.0
  5
24C
 10
-1.026927
 20
8.476229
 30
0.0
 40
0.0
 41
0.0
  0
SEQEND
  8
0
  5
24D
  0
POLYLINE
  8
7
  6
CONTINUOUS
 62
   214
 48
2.0
  5
24E
 66
     1
 10
0.0
 20
0.0
 30
0.0
 70
   128
  0
VERTEX
  8
7
  6
CONTINUOUS
 62
   214
 48
2.0
  5
24F
 10
-0.776927
 20
8.47618
 30
0.0
 40
0.0
 41
0.0
  0
VERTEX
  8
7
  6
CONTINUOUS
 62
   214
 48
2.0
  5
250
 10
-0.776935
 20
8.434176
 30
0.0
 40
0.0
 41
0.0
  0
SEQEND
  8
0
  5
251
  0
POLYLINE
  8
7
  6
CONTINUOUS
 62
   214
 48
2.0
  5
252
 66
     1
 10
0.0
 20
0.0
 30
0.0
 70
   128
  0
VERTEX
  8
7
  6
CONTINUOUS
 62
   214
 48
2.0
  5
253
 10
-0.526927
 20
8.476126
 30
0.0
 40
0.0
 41
0.0
  0
VERTEX
  8
7
  6
CONTINUOUS
 62
   214
 48
2.0
  5
254
 10
-0.526935
 20
8.434123
 30
0.0
 40
0.0
 41
0.0
  0
SEQEND
  8
0
  5
255
  0
POLYLINE
  8
7
  6
CONTINUOUS
 62
   214
 48
2.0
  5
256
 66
     1
 10
0.0
 20
0.0
 30
0.0
 70
   128
  0
VERTEX
  8
7
  6
CONTINUOUS
 62
   214
 48
2.0
  5
257
 10
1.898037
 20
8.308597
 30
0.0
 40
0.0
 41
0.0
  0
VERTEX
  8
7
  6
CONTINUOUS
 62
   214
 48
2.0
  5
258
 10
1.89803
 20
8.267096
 30
0.0
 40
0.0
 41
0.0
  0
SEQEND
  8
0
  5
259
  0
POLYLINE
  8
7
  6
CONTINUOUS
 62
   214
 48
2.0
  5
25A
 66
     1
 10
0.0
 20
0.0
 30
0.0
 70
   128
  0
VERTEX
  8
7
  6
CONTINUOUS
 62
   214
 48
2.0
  5
25B
 10
2.148037
 20
8.308543
 30
0.0
 40
0.0
 41
0.0
  0
VERTEX
  8
7
  6
CONTINUOUS
 62
   214
 48
2.0
  5
25C
 10
2.14803
 20
8.267043
 30
0.0
 40
0.0
 41
0.0
  0
SEQEND
  8
0
  5
25D
  0
POLYLINE
  8
4
  6
CONTINUOUS
 62
   174
 48
2.0
  5
25E
 66
     1
 10
0.0
 20
0.0
 30
0.0
 70
   128
  0
VERTEX
  8
4
  6
CONTINUOUS
 62
   174
 48
2.0
  5
25F
 10
3.59824
 20
9.196757
 30
0.0
 40
0.0
 41
0.0
  0
VERTEX
  8
4
  6
CONTINUOUS
 62
   174
 48
2.0
  5
260
 10
-1.65176
 20
9.197864
 30
0.0
 40
0.0
 41
0.0
  0
SEQEND
  8
0
  5
261
  0
POLYLINE
  8
4
  6
CONTINUOUS
 62
   174
 48
2.0
  5
262
 66
     1
 10
0.0
 20
0.0
 30
0.0
 70
   128
  0
VERTEX
  8
4
  6
CONTINUOUS
 62
   174
 48
2.0
  5
263
 10
-1.40176
 20
9.197864
 30
0.0
 40
0.0
 41
0.0
  0
VERTEX
  8
4
  6
CONTINUOUS
 62
   174
 48
2.0
  5
264
 10
-1.40176
 20
5.947863
 30
0.0
 40
0.0
 41
0.0
  0
SEQEND
  8
0
  5
265
  0
POLYLINE
  8
4
  6
CONTINUOUS
 62
   174
 48
2.0
  5
266
 66
     1
 10
0.0
 20
0.0
 30
0.0
 70
   128
  0
VERTEX
  8
4
  6
CONTINUOUS
 62
   174
 48
2.0
  5
267
 10
0.248242
 20
8.947864
 30
0.0
 40
0.0
 41
0.0
  0
VERTEX
  8
4
  6
CONTINUOUS
 62
   174
 48
2.0
  5
268
 10
0.248242
 20
5.947864
 30
0.0
 40
0.0
 41
0.0
  0
SEQEND
  8
0
  5
269
  0
POLYLINE
  8
4
  6
CONTINUOUS
 62
   174
 48
2.0
  5
26A
 66
     1
 10
0.0
 20
0.0
 30
0.0
 70
   128
  0
VERTEX
  8
4
  6
CONTINUOUS
 62
   174
 48
2.0
  5
26B
 10
0.498242
 20
5.947864
 30
0.0
 40
0.0
 41
0.0
  0
VERTEX
  8
4
  6
CONTINUOUS
 62
   174
 48
2.0
  5
26C
 10
0.498242
 20
8.947864
 30
0.0
 40
0.0
 41
0.0
  0
SEQEND
  8
0
  5
26D
  0
POLYLINE
  8
5
  6
CONTINUOUS
 62
    54
 48
2.0
  5
26E
 66
     1
 10
0.0
 20
0.0
 30
0.0
 70
   128
  0
VERTEX
  8
5
  6
CONTINUOUS
 62
    54
 48
2.0
  5
26F
 10
3.662922
 20
8.2042
 30
0.0
 40
0.0
 41
0.0
  0
VERTEX
  8
5
  6
CONTINUOUS
 62
    54
 48
2.0
  5
270
 10
4.287922
 20
8.2042
 30
0.0
 40
0.0
 41
0.0
  0
SEQEND
  8
0
  5
271
  0
POLYLINE
  8
5
  6
CONTINUOUS
 62
    54
 48
2.0
  5
272
 66
     1
 10
0.0
 20
0.0
 30
0.0
 70
   128
  0
VERTEX
  8
5
  6
CONTINUOUS
 62
    54
 48
2.0
  5
273
 10
3.662922
 20
7.3292
 30
0.0
 40
0.0
 41
0.0
  0
VERTEX
  8
5
  6
CONTINUOUS
 62
    54
 48
2.0
  5
274
 10
4.287922
 20
7.3292
 30
0.0
 40
0.0
 41
0.0
  0
SEQEND
  8
0
  5
275
  0
POLYLINE
  8
5
  6
CONTINUOUS
 62
    54
 48
2.0
  5
276
 66
     1
 10
0.0
 20
0.0
 30
0.0
 70
   128
  0
VERTEX
  8
5
  6
CONTINUOUS
 62
    54
 48
2.0
  5
277
 10
3.662922
 20
8.2042
 30
0.0
 40
0.0
 41
0.0
  0
VERTEX
  8
5
  6
CONTINUOUS
 62
    54
 48
2.0
  5
278
 10
3.662922
 20
7.3292
 30
0.0
 40
0.0
 41
0.0
  0
SEQEND
  8
0
  5
279
  0
POLYLINE
  8
5
  6
CONTINUOUS
 62
    54
 48
2.0
  5
27A
 66
     1
 10
0.0
 20
0.0
 30
0.0
 70
   128
  0
VERTEX
  8
5
  6
CONTINUOUS
 62
    54
 48
2.0
  5
27B
 10
4.287922
 20
8.2042
 30
0.0
 40
0.0
 41
0.0
  0
VERTEX
  8
5
  6
CONTINUOUS
 62
    54
 48
2.0
  5
27C
 10
4.287922
 20
7.3292
 30
0.0
 40
0.0
 41
0.0
  0
SEQEND
  8
0
  5
27D
  0
POLYLINE
  8
5
  6
CONTINUOUS
 62
    54
 48
2.0
  5
27E
 66
     1
 10
0.0
 20
0.0
 30
0.0
 70
   128
  0
VERTEX
  8
5
  6
CONTINUOUS
 62
    54
 48
2.0
  5
27F
 10
4.287922
 20
8.0792
 30
0.0
 40
0.0
 41
0.0
  0
VERTEX
  8
5
  6
CONTINUOUS
 62
    54
 48
2.0
  5
280
 10
3.787423
 20
8.0792
 30
0.0
 40
0.0
 41
0.0
  0
VERTEX
  8
5
  6
CONTINUOUS
 62
    54
 48
2.0
  5
281
 10
3.787423
 20
7.4542
 30
0.0
 40
0.0
 41
0.0
  0
VERTEX
  8
5
  6
CONTINUOUS
 62
    54
 48
2.0
  5
282
 10
4.287922
 20
7.4542
 30
0.0
 40
0.0
 41
0.0
  0
SEQEND
  8
0
  5
283
  0
POLYLINE
  8
5
  6
CONTINUOUS
 62
    54
 48
2.0
  5
284
 66
     1
 10
0.0
 20
0.0
 30
0.0
 70
   128
  0
VERTEX
  8
5
  6
CONTINUOUS
 62
    54
 48
2.0
  5
285
 10
-1.277076
 20
8.017783
 30
0.0
 40
0.0
 41
0.0
  0
VERTEX
  8
5
  6
CONTINUOUS
 62
    54
 48
2.0
  5
286
 10
-2.282075
 20
8.017783
 30
0.0
 40
0.0
 41
0.0
  0
SEQEND
  8
0
  5
287
  0
POLYLINE
  8
5
  6
CONTINUOUS
 62
    54
 48
2.0
  5
288
 66
     1
 10
0.0
 20
0.0
 30
0.0
 70
   128
  0
VERTEX
  8
5
  6
CONTINUOUS
 62
    54
 48
2.0
  5
289
 10
-1.277076
 20
7.517783
 30
0.0
 40
0.0
 41
0.0
  0
VERTEX
  8
5
  6
CONTINUOUS
 62
    54
 48
2.0
  5
28A
 10
-2.282075
 20
7.517783
 30
0.0
 40
0.0
 41
0.0
  0
SEQEND
  8
0
  5
28B
  0
POLYLINE
  8
5
  6
CONTINUOUS
 62
    54
 48
2.0
  5
28C
 66
     1
 10
0.0
 20
0.0
 30
0.0
 70
   128
  0
VERTEX
  8
5
  6
CONTINUOUS
 62
    54
 48
2.0
  5
28D
 10
-2.282075
 20
8.017783
 30
0.0
 40
0.0
 41
0.0
  0
VERTEX
  8
5
  6
CONTINUOUS
 62
    54
 48
2.0
  5
28E
 10
-2.282075
 20
7.517783
 30
0.0
 40
0.0
 41
0.0
  0
SEQEND
  8
0
  5
28F
  0
POLYLINE
  8
7
  6
CONTINUOUS
 62
   214
 48
2.0
  5
290
 66
     1
 10
0.0
 20
0.0
 30
0.0
 70
   128
  0
VERTEX
  8
7
  6
CONTINUOUS
 62
   214
 48
2.0
  5
291
 10
1.897818
 20
7.267096
 30
0.0
 40
0.0
 41
0.0
  0
VERTEX
  8
7
  6
CONTINUOUS
 62
   214
 48
2.0
  5
292
 10
1.897818
 20
7.225096
 30
0.0
 40
0.0
 41
0.0
  0
SEQEND
  8
0
  5
293
  0
POLYLINE
  8
7
  6
CONTINUOUS
 62
   214
 48
2.0
  5
294
 66
     1
 10
0.0
 20
0.0
 30
0.0
 70
   128
  0
VERTEX
  8
7
  6
CONTINUOUS
 62
   214
 48
2.0
  5
295
 10
2.147818
 20
7.267043
 30
0.0
 40
0.0
 41
0.0
  0
VERTEX
  8
7
  6
CONTINUOUS
 62
   214
 48
2.0
  5
296
 10
2.147818
 20
7.225043
 30
0.0
 40
0.0
 41
0.0
  0
SEQEND
  8
0
  5
297
  0
POLYLINE
  8
7
  6
CONTINUOUS
 62
   214
 48
2.0
  5
298
 66
     1
 10
0.0
 20
0.0
 30
0.0
 70
   128
  0
VERTEX
  8
7
  6
CONTINUOUS
 62
   214
 48
2.0
  5
299
 10
1.897818
 20
7.225096
 30
0.0
 40
0.0
 41
0.0
  0
VERTEX
  8
7
  6
CONTINUOUS
 62
   214
 48
2.0
  5
29A
 10
2.147818
 20
7.225043
 30
0.0
 40
0.0
 41
0.0
  0
SEQEND
  8
0
  5
29B
  0
POLYLINE
  8
7
  6
CONTINUOUS
 62
   214
 48
2.0
  5
29C
 66
     1
 10
0.0
 20
0.0
 30
0.0
 70
   128
  0
VERTEX
  8
7
  6
CONTINUOUS
 62
   214
 48
2.0
  5
29D
 10
-0.276996
 20
8.142574
 30
0.0
 40
0.0
 41
0.0
  0
VERTEX
  8
7
  6
CONTINUOUS
 62
   214
 48
2.0
  5
29E
 10
-0.277006
 20
8.101073
 30
0.0
 40
0.0
 41
0.0
  0
SEQEND
  8
0
  5
29F
  0
POLYLINE
  8
1
  6
CONTINUOUS
 62
   250
 48
2.0
  5
2A0
 66
     1
 10
0.0
 20
0.0
 30
0.0
 70
   128
  0
VERTEX
  8
1
  6
CONTINUOUS
 62
   250
 48
2.0
  5
2A1
 10
-1.402061
 20
8.157809
 30
0.0
 40
0.0
 41
0.0
  0
VERTEX
  8
1
  6
CONTINUOUS
 62
   250
 48
2.0
  5
2A2
 10
-2.277061
 20
8.157809
 30
0.0
 40
0.0
 41
0.0
  0
VERTEX
  8
1
  6
CONTINUOUS
 62
   250
 48
2.0
  5
2A3
 10
-2.277061
 20
7.37781
 30
0.0
 40
0.0
 41
0.0
  0
VERTEX
  8
1
  6
CONTINUOUS
 62
   250
 48
2.0
  5
2A4
 10
-1.402061
 20
7.37781
 30
0.0
 40
0.0
 41
0.0
  0
SEQEND
  8
0
  5
2A5
  0
POLYLINE
  8
1
  6
CONTINUOUS
 62
   250
 48
2.0
  5
2A6
 66
     1
 10
0.0
 20
0.0
 30
0.0
 70
   128
  0
VERTEX
  8
1
  6
CONTINUOUS
 62
   250
 48
2.0
  5
2A7
 10
-1.40176
 20
8.39281
 30
0.0
 40
0.0
 41
0.0
  0
VERTEX
  8
1
  6
CONTINUOUS
 62
   250
 48
2.0
  5
2A8
 10
-1.33926
 20
8.39281
 30
0.0
 40
0.0
 41
0.0
  0
VERTEX
  8
1
  6
CONTINUOUS
 62
   250
 48
2.0
  5
2A9
 10
-1.33926
 20
7.14281
 30
0.0
 40
0.0
 41
0.0
  0
VERTEX
  8
1
  6
CONTINUOUS
 62
   250
 48
2.0
  5
2AA
 10
-1.40176
 20
7.14281
 30
0.0
 40
0.0
 41
0.0
  0
VERTEX
  8
1
  6
CONTINUOUS
 62
   250
 48
2.0
  5
2AB
 10
-1.40176
 20
8.39281
 30
0.0
 40
0.0
 41
0.0
  0
SEQEND
  8
0
  5
2AC
  0
POLYLINE
  8
1
  6
CONTINUOUS
 62
   250
 48
2.0
  5
2AD
 66
     1
 10
0.0
 20
0.0
 30
0.0
 70
   128
  0
VERTEX
  8
1
  6
CONTINUOUS
 62
   250
 48
2.0
  5
2AE
 10
3.59794
 20
8.20531
 30
0.0
 40
0.0
 41
0.0
  0
VERTEX
  8
1
  6
CONTINUOUS
 62
   250
 48
2.0
  5
2AF
 10
3.66044
 20
8.20531
 30
0.0
 40
0.0
 41
0.0
  0
VERTEX
  8
1
  6
CONTINUOUS
 62
   250
 48
2.0
  5
2B0
 10
3.66044
 20
7.33031
 30
0.0
 40
0.0
 41
0.0
  0
VERTEX
  8
1
  6
CONTINUOUS
 62
   250
 48
2.0
  5
2B1
 10
3.59794
 20
7.33031
 30
0.0
 40
0.0
 41
0.0
  0
VERTEX
  8
1
  6
CONTINUOUS
 62
   250
 48
2.0
  5
2B2
 10
3.59794
 20
8.20531
 30
0.0
 40
0.0
 41
0.0
  0
SEQEND
  8
0
  5
2B3
  0
POLYLINE
  8
1
  6
CONTINUOUS
 62
   250
 48
2.0
  5
2B4
 66
     1
 10
0.0
 20
0.0
 30
0.0
 70
   128
  0
VERTEX
  8
1
  6
CONTINUOUS
 62
   250
 48
2.0
  5
2B5
 10
3.59794
 20
8.08031
 30
0.0
 40
0.0
 41
0.0
  0
VERTEX
  8
1
  6
CONTINUOUS
 62
   250
 48
2.0
  5
2B6
 10
3.34794
 20
8.08031
 30
0.0
 40
0.0
 41
0.0
  0
VERTEX
  8
1
  6
CONTINUOUS
 62
   250
 48
2.0
  5
2B7
 10
3.34794
 20
7.45531
 30
0.0
 40
0.0
 41
0.0
  0
VERTEX
  8
1
  6
CONTINUOUS
 62
   250
 48
2.0
  5
2B8
 10
3.59794
 20
7.45531
 30
0.0
 40
0.0
 41
0.0
  0
SEQEND
  8
0
  5
2B9
  0
POLYLINE
  8
5
  6
CONTINUOUS
 62
    54
 48
2.0
  5
2BA
 66
     1
 10
0.0
 20
0.0
 30
0.0
 70
   128
  0
VERTEX
  8
5
  6
CONTINUOUS
 62
    54
 48
2.0
  5
2BB
 10
2.147977
 20
8.017043
 30
0.0
 40
0.0
 41
0.0
  0
VERTEX
  8
5
  6
CONTINUOUS
 62
    54
 48
2.0
  5
2BC
 10
2.147871
 20
7.517043
 30
0.0
 40
0.0
 41
0.0
  0
SEQEND
  8
0
  5
2BD
  0
POLYLINE
  8
4
  6
CONTINUOUS
 62
   174
 48
2.0
  5
2BE
 66
     1
 10
0.0
 20
0.0
 30
0.0
 70
   128
  0
VERTEX
  8
4
  6
CONTINUOUS
 62
   174
 48
2.0
  5
2BF
 10
1.498242
 20
8.947864
 30
0.0
 40
0.0
 41
0.0
  0
VERTEX
  8
4
  6
CONTINUOUS
 62
   174
 48
2.0
  5
2C0
 10
1.498242
 20
7.197864
 30
0.0
 40
0.0
 41
0.0
  0
SEQEND
  8
0
  5
2C1
  0
POLYLINE
  8
4
  6
CONTINUOUS
 62
   174
 48
2.0
  5
2C2
 66
     1
 10
0.0
 20
0.0
 30
0.0
 70
   128
  0
VERTEX
  8
4
  6
CONTINUOUS
 62
   174
 48
2.0
  5
2C3
 10
1.248242
 20
7.197864
 30
0.0
 40
0.0
 41
0.0
  0
VERTEX
  8
4
  6
CONTINUOUS
 62
   174
 48
2.0
  5
2C4
 10
1.248242
 20
8.947864
 30
0.0
 40
0.0
 41
0.0
  0
SEQEND
  8
0
  5
2C5
  0
POLYLINE
  8
4
  6
CONTINUOUS
 62
   174
 48
2.0
  5
2C6
 66
     1
 10
0.0
 20
0.0
 30
0.0
 70
   128
  0
VERTEX
  8
4
  6
CONTINUOUS
 62
   174
 48
2.0
  5
2C7
 10
0.248242
 20
8.947864
 30
0.0
 40
0.0
 41
0.0
  0
VERTEX
  8
4
  6
CONTINUOUS
 62
   174
 48
2.0
  5
2C8
 10
0.498242
 20
8.947864
 30
0.0
 40
0.0
 41
0.0
  0
SEQEND
  8
0
  5
2C9
  0
POLYLINE
  8
4
  6
CONTINUOUS
 62
   174
 48
2.0
  5
2CA
 66
     1
 10
0.0
 20
0.0
 30
0.0
 70
   128
  0
VERTEX
  8
4
  6
CONTINUOUS
 62
   174
 48
2.0
  5
2CB
 10
1.248242
 20
8.947864
 30
0.0
 40
0.0
 41
0.0
  0
VERTEX
  8
4
  6
CONTINUOUS
 62
   174
 48
2.0
  5
2CC
 10
1.498242
 20
8.947864
 30
0.0
 40
0.0
 41
0.0
  0
SEQEND
  8
0
  5
2CD
  0
POLYLINE
  8
1
  6
CONTINUOUS
 62
   250
 48
2.0
  5
2CE
 66
     1
 10
0.0
 20
0.0
 30
0.0
 70
   128
  0
VERTEX
  8
1
  6
CONTINUOUS
 62
   250
 48
2.0
  5
2CF
 10
0.248242
 20
7.95531
 30
0.0
 40
0.0
 41
0.0
  0
VERTEX
  8
1
  6
CONTINUOUS
 62
   250
 48
2.0
  5
2D0
 10
0.498242
 20
7.95531
 30
0.0
 40
0.0
 41
0.0
  0
VERTEX
  8
1
  6
CONTINUOUS
 62
   250
 48
2.0
  5
2D1
 10
0.498242
 20
7.58031
 30
0.0
 40
0.0
 41
0.0
  0
VERTEX
  8
1
  6
CONTINUOUS
 62
   250
 48
2.0
  5
2D2
 10
0.248242
 20
7.58031
 30
0.0
 40
0.0
 41
0.0
  0
VERTEX
  8
1
  6
CONTINUOUS
 62
   250
 48
2.0
  5
2D3
 10
0.248242
 20
7.95531
 30
0.0
 40
0.0
 41
0.0
  0
SEQEND
  8
0
  5
2D4
  0
POLYLINE
  8
1
  6
CONTINUOUS
 62
   250
 48
2.0
  5
2D5
 66
     1
 10
0.0
 20
0.0
 30
0.0
 70
   128
  0
VERTEX
  8
1
  6
CONTINUOUS
 62
   250
 48
2.0
  5
2D6
 10
0.498242
 20
8.01781
 30
0.0
 40
0.0
 41
0.0
  0
VERTEX
  8
1
  6
CONTINUOUS
 62
   250
 48
2.0
  5
2D7
 10
0.560742
 20
8.01781
 30
0.0
 40
0.0
 41
0.0
  0
VERTEX
  8
1
  6
CONTINUOUS
 62
   250
 48
2.0
  5
2D8
 10
0.560742
 20
7.51781
 30
0.0
 40
0.0
 41
0.0
  0
VERTEX
  8
1
  6
CONTINUOUS
 62
   250
 48
2.0
  5
2D9
 10
0.498242
 20
7.51781
 30
0.0
 40
0.0
 41
0.0
  0
VERTEX
  8
1
  6
CONTINUOUS
 62
   250
 48
2.0
  5
2DA
 10
0.498242
 20
8.01781
 30
0.0
 40
0.0
 41
0.0
  0
SEQEND
  8
0
  5
2DB
  0
POLYLINE
  8
1
  6
CONTINUOUS
 62
   250
 48
2.0
  5
2DC
 66
     1
 10
0.0
 20
0.0
 30
0.0
 70
   128
  0
VERTEX
  8
1
  6
CONTINUOUS
 62
   250
 48
2.0
  5
2DD
 10
1.248242
 20
7.95531
 30
0.0
 40
0.0
 41
0.0
  0
VERTEX
  8
1
  6
CONTINUOUS
 62
   250
 48
2.0
  5
2DE
 10
1.498242
 20
7.95531
 30
0.0
 40
0.0
 41
0.0
  0
VERTEX
  8
1
  6
CONTINUOUS
 62
   250
 48
2.0
  5
2DF
 10
1.498242
 20
7.58031
 30
0.0
 40
0.0
 41
0.0
  0
VERTEX
  8
1
  6
CONTINUOUS
 62
   250
 48
2.0
  5
2E0
 10
1.248242
 20
7.58031
 30
0.0
 40
0.0
 41
0.0
  0
VERTEX
  8
1
  6
CONTINUOUS
 62
   250
 48
2.0
  5
2E1
 10
1.248242
 20
7.95531
 30
0.0
 40
0.0
 41
0.0
  0
SEQEND
  8
0
  5
2E2
  0
POLYLINE
  8
1
  6
CONTINUOUS
 62
   250
 48
2.0
  5
2E3
 66
     1
 10
0.0
 20
0.0
 30
0.0
 70
   128
  0
VERTEX
  8
1
  6
CONTINUOUS
 62
   250
 48
2.0
  5
2E4
 10
1.248242
 20
8.01781
 30
0.0
 40
0.0
 41
0.0
  0
VERTEX
  8
1
  6
CONTINUOUS
 62
   250
 48
2.0
  5
2E5
 10
1.185742
 20
8.01781
 30
0.0
 40
0.0
 41
0.0
  0
VERTEX
  8
1
  6
CONTINUOUS
 62
   250
 48
2.0
  5
2E6
 10
1.185742
 20
7.51781
 30
0.0
 40
0.0
 41
0.0
  0
VERTEX
  8
1
  6
CONTINUOUS
 62
   250
 48
2.0
  5
2E7
 10
1.248242
 20
7.51781
 30
0.0
 40
0.0
 41
0.0
  0
VERTEX
  8
1
  6
CONTINUOUS
 62
   250
 48
2.0
  5
2E8
 10
1.248242
 20
8.01781
 30
0.0
 40
0.0
 41
0.0
  0
SEQEND
  8
0
  5
2E9
  0
POLYLINE
  8
7
  6
CONTINUOUS
 62
   214
 48
2.0
  5
2EA
 66
     1
 10
0.0
 20
0.0
 30
0.0
 70
   128
  0
VERTEX
  8
7
  6
CONTINUOUS
 62
   214
 48
2.0
  5
2EB
 10
1.897923
 20
8.079596
 30
0.0
 40
0.0
 41
0.0
  0
VERTEX
  8
7
  6
CONTINUOUS
 62
   214
 48
2.0
  5
2EC
 10
1.597924
 20
8.079596
 30
0.0
 40
0.0
 41
0.0
  0
VERTEX
  8
7
  6
CONTINUOUS
 62
   214
 48
2.0
  5
2ED
 10
1.597924
 20
7.454596
 30
0.0
 40
0.0
 41
0.0
  0
VERTEX
  8
7
  6
CONTINUOUS
 62
   214
 48
2.0
  5
2EE
 10
1.897923
 20
7.454596
 30
0.0
 40
0.0
 41
0.0
  0
SEQEND
  8
0
  5
2EF
  0
POLYLINE
  8
5
  6
CONTINUOUS
 62
    54
 48
2.0
  5
2F0
 66
     1
 10
0.0
 20
0.0
 30
0.0
 70
   128
  0
VERTEX
  8
5
  6
CONTINUOUS
 62
    54
 48
2.0
  5
2F1
 10
-2.282075
 20
8.003783
 30
0.0
 40
0.0
 41
0.0
  0
VERTEX
  8
5
  6
CONTINUOUS
 62
    54
 48
2.0
  5
2F2
 10
-2.907075
 20
8.003783
 30
0.0
 40
0.0
 41
0.0
  0
VERTEX
  8
5
  6
CONTINUOUS
 62
    54
 48
2.0
  5
2F3
 10
-2.907075
 20
7.531783
 30
0.0
 40
0.0
 41
0.0
  0
VERTEX
  8
5
  6
CONTINUOUS
 62
    54
 48
2.0
  5
2F4
 10
-2.282075
 20
7.531783
 30
0.0
 40
0.0
 41
0.0
  0
SEQEND
  8
0
  5
2F5
  0
CIRCLE
  8
4
  6
CONTINUOUS
 62
   174
 48
2.0
  5
2F6
 10
-0.373242
 20
8.697864
 30
0.0
 40
0.069999
210
0.0
220
0.0
230
-1.0
  0
CIRCLE
  8
4
  6
CONTINUOUS
 62
   174
 48
2.0
  5
2F7
 10
-0.373242
 20
7.447864
 30
0.0
 40
0.069999
210
0.0
220
0.0
230
-1.0
  0
CIRCLE
  8
4
  6
CONTINUOUS
 62
   174
 48
2.0
  5
2F8
 10
-0.373242
 20
6.197864
 30
0.0
 40
0.07
210
0.0
220
0.0
230
-1.0
  0
CIRCLE
  8
4
  6
CONTINUOUS
 62
   174
 48
2.0
  5
2F9
 10
-1.373242
 20
8.697864
 30
0.0
 40
0.069999
210
0.0
220
0.0
230
-1.0
  0
CIRCLE
  8
4
  6
CONTINUOUS
 62
   174
 48
2.0
  5
2FA
 10
-1.373242
 20
7.447864
 30
0.0
 40
0.069999
210
0.0
220
0.0
230
-1.0
  0
POLYLINE
  8
4
  6
CONTINUOUS
 62
   174
 48
2.0
  5
2FB
 66
     1
 10
0.0
 20
0.0
 30
0.0
 70
   128
  0
VERTEX
  8
4
  6
CONTINUOUS
 62
   174
 48
2.0
  5
2FC
 10
1.248242
 20
7.197864
 30
0.0
 40
0.0
 41
0.0
  0
VERTEX
  8
4
  6
CONTINUOUS
 62
   174
 48
2.0
  5
2FD
 10
1.498242
 20
7.197864
 30
0.0
 40
0.0
 41
0.0
  0
SEQEND
  8
0
  5
2FE
  0
CIRCLE
  8
4
  6
CONTINUOUS
 62
   174
 48
2.0
  5
2FF
 10
-2.84824
 20
8.527812
 30
0.0
 40
0.099998
210
0.0
220
0.0
230
-1.0
  0
POLYLINE
  8
7
  6
CONTINUOUS
 62
   214
 48
2.0
  5
300
 66
     1
 10
0.0
 20
0.0
 30
0.0
 70
   128
  0
VERTEX
  8
7
  6
CONTINUOUS
 62
   214
 48
2.0
  5
301
 10
19.618241
 20
6.847811
 30
0.0
 40
0.0
 41
0.0
  0
VERTEX
  8
7
  6
CONTINUOUS
 62
   214
 48
2.0
  5
302
 10
22.618241
 20
6.847811
 30
0.0
 40
0.0
 41
0.0
  0
SEQEND
  8
0
  5
303
  0
POLYLINE
  8
7
  6
CONTINUOUS
 62
   214
 48
2.0
  5
304
 66
     1
 10
0.0
 20
0.0
 30
0.0
 70
   128
  0
VERTEX
  8
7
  6
CONTINUOUS
 62
   214
 48
2.0
  5
305
 10
19.618241
 20
9.19781
 30
0.0
 40
0.0
 41
0.0
  0
VERTEX
  8
7
  6
CONTINUOUS
 62
   214
 48
2.0
  5
306
 10
22.618241
 20
9.19781
 30
0.0
 40
0.0
 41
0.0
  0
SEQEND
  8
0
  5
307
  0
POLYLINE
  8
7
  6
CONTINUOUS
 62
   214
 48
2.0
  5
308
 66
     1
 10
0.0
 20
0.0
 30
0.0
 70
   128
  0
VERTEX
  8
7
  6
CONTINUOUS
 62
   214
 48
2.0
  5
309
 10
19.618241
 20
9.547809
 30
0.0
 40
0.0
 41
0.0
  0
VERTEX
  8
7
  6
CONTINUOUS
 62
   214
 48
2.0
  5
30A
 10
22.618241
 20
9.547809
 30
0.0
 40
0.0
 41
0.0
  0
SEQEND
  8
0
  5
30B
  0
POLYLINE
  8
7
  6
CONTINUOUS
 62
   214
 48
2.0
  5
30C
 66
     1
 10
0.0
 20
0.0
 30
0.0
 70
   128
  0
VERTEX
  8
7
  6
CONTINUOUS
 62
   214
 48
2.0
  5
30D
 10
19.618241
 20
9.747809
 30
0.0
 40
0.0
 41
0.0
  0
VERTEX
  8
7
  6
CONTINUOUS
 62
   214
 48
2.0
  5
30E
 10
22.618241
 20
9.747809
 30
0.0
 40
0.0
 41
0.0
  0
SEQEND
  8
0
  5
30F
  0
POLYLINE
  8
7
  6
CONTINUOUS
 62
   214
 48
2.0
  5
310
 66
     1
 10
0.0
 20
0.0
 30
0.0
 70
   128
  0
VERTEX
  8
7
  6
CONTINUOUS
 62
   214
 48
2.0
  5
311
 10
22.618241
 20
9.747809
 30
0.0
 40
0.0
 41
0.0
  0
VERTEX
  8
7
  6
CONTINUOUS
 62
   214
 48
2.0
  5
312
 10
22.618241
 20
6.847811
 30
0.0
 40
0.0
 41
0.0
  0
SEQEND
  8
0
  5
313
  0
CIRCLE
  8
7
  6
CONTINUOUS
 62
   214
 48
2.0
  5
314
 10
-22.01824
 20
8.51781
 30
0.0
 40
0.099998
210
0.0
220
0.0
230
-1.0
  0
CIRCLE
  8
7
  6
CONTINUOUS
 62
   214
 48
2.0
  5
315
 10
-22.01824
 20
7.01781
 30
0.0
 40
0.099999
210
0.0
220
0.0
230
-1.0
  0
POLYLINE
  8
1
  6
CONTINUOUS
 62
   250
 48
0.2
  5
316
 66
     1
 10
0.0
 20
0.0
 30
0.0
 70
   128
  0
VERTEX
  8
1
  6
CONTINUOUS
 62
   250
 48
0.2
  5
317
 10
22.818241
 20
9.747809
 30
0.0
 40
0.0
 41
0.0
  0
VERTEX
  8
1
  6
CONTINUOUS
 62
   250
 48
0.2
  5
318
 10
24.419131
 20
9.747809
 30
0.0
 40
0.0
 41
0.0
  0
SEQEND
  8
0
  5
319
  0
POLYLINE
  8
1
  6
CONTINUOUS
 62
   250
 48
0.2
  5
31A
 66
     1
 10
0.0
 20
0.0
 30
0.0
 70
   128
  0
VERTEX
  8
1
  6
CONTINUOUS
 62
   250
 48
0.2
  5
31B
 10
22.818241
 20
6.847811
 30
0.0
 40
0.0
 41
0.0
  0
VERTEX
  8
1
  6
CONTINUOUS
 62
   250
 48
0.2
  5
31C
 10
24.419131
 20
6.847811
 30
0.0
 40
0.0
 41
0.0
  0
SEQEND
  8
0
  5
31D
  0
POLYLINE
  8
1
  6
CONTINUOUS
 62
   250
 48
0.2
  5
31E
 66
     1
 10
0.0
 20
0.0
 30
0.0
 70
   128
  0
VERTEX
  8
1
  6
CONTINUOUS
 62
   250
 48
0.2
  5
31F
 10
24.319129
 20
8.774955
 30
0.0
 40
0.0
 41
0.0
  0
VERTEX
  8
1
  6
CONTINUOUS
 62
   250
 48
0.2
  5
320
 10
24.319129
 20
9.747809
 30
0.0
 40
0.0
 41
0.0
  0
SEQEND
  8
0
  5
321
  0
POLYLINE
  8
1
  6
CONTINUOUS
 62
   250
 48
0.2
  5
322
 66
     1
 10
0.0
 20
0.0
 30
0.0
 70
   128
  0
VERTEX
  8
1
  6
CONTINUOUS
 62
   250
 48
0.2
  5
323
 10
24.27913
 20
9.547809
 30
0.0
 40
0.0
 41
0.0
  0
VERTEX
  8
1
  6
CONTINUOUS
 62
   250
 48
0.2
  5
324
 10
24.319129
 20
9.747809
 30
0.0
 40
0.0
 41
0.0
  0
VERTEX
  8
1
  6
CONTINUOUS
 62
   250
 48
0.2
  5
325
 10
24.359131
 20
9.547809
 30
0.0
 40
0.0
 41
0.0
  0
SEQEND
  8
0
  5
326
  0
POLYLINE
  8
1
  6
CONTINUOUS
 62
   250
 48
0.2
  5
327
 66
     1
 10
0.0
 20
0.0
 30
0.0
 70
   128
  0
VERTEX
  8
1
  6
CONTINUOUS
 62
   250
 48
0.2
  5
328
 10
24.319129
 20
7.820666
 30
0.0
 40
0.0
 41
0.0
  0
VERTEX
  8
1
  6
CONTINUOUS
 62
   250
 48
0.2
  5
329
 10
24.319129
 20
6.847811
 30
0.0
 40
0.0
 41
0.0
  0
SEQEND
  8
0
  5
32A
  0
POLYLINE
  8
1
  6
CONTINUOUS
 62
   250
 48
0.2
  5
32B
 66
     1
 10
0.0
 20
0.0
 30
0.0
 70
   128
  0
VERTEX
  8
1
  6
CONTINUOUS
 62
   250
 48
0.2
  5
32C
 10
24.359131
 20
7.047812
 30
0.0
 40
0.0
 41
0.0
  0
VERTEX
  8
1
  6
CONTINUOUS
 62
   250
 48
0.2
  5
32D
 10
24.319129
 20
6.847811
 30
0.0
 40
0.0
 41
0.0
  0
VERTEX
  8
1
  6
CONTINUOUS
 62
   250
 48
0.2
  5
32E
 10
24.27913
 20
7.047812
 30
0.0
 40
0.0
 41
0.0
  0
SEQEND
  8
0
  5
32F
  0
TEXT
  8
1
 62
   250
 48
0.0
  5
330
 10
24.419131
 20
7.920664
 30
0.0
 40
0.199999
  1
2.900
 50
90.0
 72
     5
 11
24.419131
 21
8.674948
 31
0.0
210
0.0
220
0.0
230
1.0
  0
POLYLINE
  8
1
  6
CONTINUOUS
 62
   250
 48
0.2
  5
331
 66
     1
 10
0.0
 20
0.0
 30
0.0
 70
   128
  0
VERTEX
  8
1
  6
CONTINUOUS
 62
   250
 48
0.2
  5
332
 10
22.818241
 20
9.19781
 30
0.0
 40
0.0
 41
0.0
  0
VERTEX
  8
1
  6
CONTINUOUS
 62
   250
 48
0.2
  5
333
 10
23.516189
 20
9.19781
 30
0.0
 40
0.0
 41
0.0
  0
SEQEND
  8
0
  5
334
  0
POLYLINE
  8
1
  6
CONTINUOUS
 62
   250
 48
0.2
  5
335
 66
     1
 10
0.0
 20
0.0
 30
0.0
 70
   128
  0
VERTEX
  8
1
  6
CONTINUOUS
 62
   250
 48
0.2
  5
336
 10
22.818241
 20
6.847811
 30
0.0
 40
0.0
 41
0.0
  0
VERTEX
  8
1
  6
CONTINUOUS
 62
   250
 48
0.2
  5
337
 10
23.516189
 20
6.847811
 30
0.0
 40
0.0
 41
0.0
  0
SEQEND
  8
0
  5
338
  0
POLYLINE
  8
1
  6
CONTINUOUS
 62
   250
 48
0.2
  5
339
 66
     1
 10
0.0
 20
0.0
 30
0.0
 70
   128
  0
VERTEX
  8
1
  6
CONTINUOUS
 62
   250
 48
0.2
  5
33A
 10
23.416186
 20
8.499953
 30
0.0
 40
0.0
 41
0.0
  0
VERTEX
  8
1
  6
CONTINUOUS
 62
   250
 48
0.2
  5
33B
 10
23.416186
 20
9.19781
 30
0.0
 40
0.0
 41
0.0
  0
SEQEND
  8
0
  5
33C
  0
POLYLINE
  8
1
  6
CONTINUOUS
 62
   250
 48
0.2
  5
33D
 66
     1
 10
0.0
 20
0.0
 30
0.0
 70
   128
  0
VERTEX
  8
1
  6
CONTINUOUS
 62
   250
 48
0.2
  5
33E
 10
23.376187
 20
8.997809
 30
0.0
 40
0.0
 41
0.0
  0
VERTEX
  8
1
  6
CONTINUOUS
 62
   250
 48
0.2
  5
33F
 10
23.416186
 20
9.19781
 30
0.0
 40
0.0
 41
0.0
  0
VERTEX
  8
1
  6
CONTINUOUS
 62
   250
 48
0.2
  5
340
 10
23.456188
 20
8.997809
 30
0.0
 40
0.0
 41
0.0
  0
SEQEND
  8
0
  5
341
  0
POLYLINE
  8
1
  6
CONTINUOUS
 62
   250
 48
0.2
  5
342
 66
     1
 10
0.0
 20
0.0
 30
0.0
 70
   128
  0
VERTEX
  8
1
  6
CONTINUOUS
 62
   250
 48
0.2
  5
343
 10
23.416186
 20
7.545668
 30
0.0
 40
0.0
 41
0.0
  0
VERTEX
  8
1
  6
CONTINUOUS
 62
   250
 48
0.2
  5
344
 10
23.416186
 20
6.847811
 30
0.0
 40
0.0
 41
0.0
  0
SEQEND
  8
0
  5
345
  0
POLYLINE
  8
1
  6
CONTINUOUS
 62
   250
 48
0.2
  5
346
 66
     1
 10
0.0
 20
0.0
 30
0.0
 70
   128
  0
VERTEX
  8
1
  6
CONTINUOUS
 62
   250
 48
0.2
  5
347
 10
23.456188
 20
7.047812
 30
0.0
 40
0.0
 41
0.0
  0
VERTEX
  8
1
  6
CONTINUOUS
 62
   250
 48
0.2
  5
348
 10
23.416186
 20
6.847811
 30
0.0
 40
0.0
 41
0.0
  0
VERTEX
  8
1
  6
CONTINUOUS
 62
   250
 48
0.2
  5
349
 10
23.376187
 20
7.047812
 30
0.0
 40
0.0
 41
0.0
  0
SEQEND
  8
0
  5
34A
  0
TEXT
  8
1
 62
   250
 48
0.0
  5
34B
 10
23.516189
 20
7.645667
 30
0.0
 40
0.199999
  1
2.350
 50
90.0
 72
     5
 11
23.516189
 21
8.399951
 31
0.0
210
0.0
220
0.0
230
1.0
  0
POLYLINE
  8
1
  6
CONTINUOUS
 62
   250
 48
0.2
  5
34C
 66
     1
 10
0.0
 20
0.0
 30
0.0
 70
   128
  0
VERTEX
  8
1
  6
CONTINUOUS
 62
   250
 48
0.2
  5
34D
 10
19.618241
 20
6.647811
 30
0.0
 40
0.0
 41
0.0
  0
VERTEX
  8
1
  6
CONTINUOUS
 62
   250
 48
0.2
  5
34E
 10
19.618241
 20
5.550871
 30
0.0
 40
0.0
 41
0.0
  0
SEQEND
  8
0
  5
34F
  0
POLYLINE
  8
1
  6
CONTINUOUS
 62
   250
 48
0.2
  5
350
 66
     1
 10
0.0
 20
0.0
 30
0.0
 70
   128
  0
VERTEX
  8
1
  6
CONTINUOUS
 62
   250
 48
0.2
  5
351
 10
22.618241
 20
6.647811
 30
0.0
 40
0.0
 41
0.0
  0
VERTEX
  8
1
  6
CONTINUOUS
 62
   250
 48
0.2
  5
352
 10
22.618241
 20
5.550871
 30
0.0
 40
0.0
 41
0.0
  0
SEQEND
  8
0
  5
353
  0
POLYLINE
  8
1
  6
CONTINUOUS
 62
   250
 48
0.2
  5
354
 66
     1
 10
0.0
 20
0.0
 30
0.0
 70
   128
  0
VERTEX
  8
1
  6
CONTINUOUS
 62
   250
 48
0.2
  5
355
 10
20.644907
 20
5.65087
 30
0.0
 40
0.0
 41
0.0
  0
VERTEX
  8
1
  6
CONTINUOUS
 62
   250
 48
0.2
  5
356
 10
19.618241
 20
5.65087
 30
0.0
 40
0.0
 41
0.0
  0
SEQEND
  8
0
  5
357
  0
POLYLINE
  8
1
  6
CONTINUOUS
 62
   250
 48
0.2
  5
358
 66
     1
 10
0.0
 20
0.0
 30
0.0
 70
   128
  0
VERTEX
  8
1
  6
CONTINUOUS
 62
   250
 48
0.2
  5
359
 10
19.818241
 20
5.610869
 30
0.0
 40
0.0
 41
0.0
  0
VERTEX
  8
1
  6
CONTINUOUS
 62
   250
 48
0.2
  5
35A
 10
19.618241
 20
5.65087
 30
0.0
 40
0.0
 41
0.0
  0
VERTEX
  8
1
  6
CONTINUOUS
 62
   250
 48
0.2
  5
35B
 10
19.818241
 20
5.690871
 30
0.0
 40
0.0
 41
0.0
  0
SEQEND
  8
0
  5
35C
  0
POLYLINE
  8
1
  6
CONTINUOUS
 62
   250
 48
0.2
  5
35D
 66
     1
 10
0.0
 20
0.0
 30
0.0
 70
   128
  0
VERTEX
  8
1
  6
CONTINUOUS
 62
   250
 48
0.2
  5
35E
 10
21.591574
 20
5.65087
 30
0.0
 40
0.0
 41
0.0
  0
VERTEX
  8
1
  6
CONTINUOUS
 62
   250
 48
0.2
  5
35F
 10
22.618241
 20
5.65087
 30
0.0
 40
0.0
 41
0.0
  0
SEQEND
  8
0
  5
360
  0
POLYLINE
  8
1
  6
CONTINUOUS
 62
   250
 48
0.2
  5
361
 66
     1
 10
0.0
 20
0.0
 30
0.0
 70
   128
  0
VERTEX
  8
1
  6
CONTINUOUS
 62
   250
 48
0.2
  5
362
 10
22.418241
 20
5.690871
 30
0.0
 40
0.0
 41
0.0
  0
VERTEX
  8
1
  6
CONTINUOUS
 62
   250
 48
0.2
  5
363
 10
22.618241
 20
5.65087
 30
0.0
 40
0.0
 41
0.0
  0
VERTEX
  8
1
  6
CONTINUOUS
 62
   250
 48
0.2
  5
364
 10
22.418241
 20
5.610869
 30
0.0
 40
0.0
 41
0.0
  0
SEQEND
  8
0
  5
365
  0
TEXT
  8
1
 62
   250
 48
0.0
  5
366
 10
20.744908
 20
5.550871
 30
0.0
 40
0.200001
  1
3.000
 72
     5
 11
21.491573
 21
5.550871
 31
0.0
210
0.0
220
0.0
230
1.0
  0
POLYLINE
  8
1
  6
CONTINUOUS
 62
   250
 48
0.2
  5
367
 66
     1
 10
0.0
 20
0.0
 30
0.0
 70
   128
  0
VERTEX
  8
1
  6
CONTINUOUS
 62
   250
 48
0.2
  5
368
 10
17.76824
 20
8.71781
 30
0.0
 40
0.0
 41
0.0
  0
VERTEX
  8
1
  6
CONTINUOUS
 62
   250
 48
0.2
  5
369
 10
17.76824
 20
11.189425
 30
0.0
 40
0.0
 41
0.0
  0
SEQEND
  8
0
  5
36A
  0
POLYLINE
  8
1
  6
CONTINUOUS
 62
   250
 48
0.2
  5
36B
 66
     1
 10
0.0
 20
0.0
 30
0.0
 70
   128
  0
VERTEX
  8
1
  6
CONTINUOUS
 62
   250
 48
0.2
  5
36C
 10
22.01824
 20
8.71781
 30
0.0
 40
0.0
 41
0.0
  0
VERTEX
  8
1
  6
CONTINUOUS
 62
   250
 48
0.2
  5
36D
 10
22.01824
 20
11.189425
 30
0.0
 40
0.0
 41
0.0
  0
SEQEND
  8
0
  5
36E
  0
POLYLINE
  8
1
  6
CONTINUOUS
 62
   250
 48
0.2
  5
36F
 66
     1
 10
0.0
 20
0.0
 30
0.0
 70
   128
  0
VERTEX
  8
1
  6
CONTINUOUS
 62
   250
 48
0.2
  5
370
 10
19.406574
 20
11.089427
 30
0.0
 40
0.0
 41
0.0
  0
VERTEX
  8
1
  6
CONTINUOUS
 62
   250
 48
0.2
  5
371
 10
17.76824
 20
11.089427
 30
0.0
 40
0.0
 41
0.0
  0
SEQEND
  8
0
  5
372
  0
POLYLINE
  8
1
  6
CONTINUOUS
 62
   250
 48
0.2
  5
373
 66
     1
 10
0.0
 20
0.0
 30
0.0
 70
   128
  0
VERTEX
  8
1
  6
CONTINUOUS
 62
   250
 48
0.2
  5
374
 10
17.968242
 20
11.049426
 30
0.0
 40
0.0
 41
0.0
  0
VERTEX
  8
1
  6
CONTINUOUS
 62
   250
 48
0.2
  5
375
 10
17.76824
 20
11.089427
 30
0.0
 40
0.0
 41
0.0
  0
VERTEX
  8
1
  6
CONTINUOUS
 62
   250
 48
0.2
  5
376
 10
17.968242
 20
11.129428
 30
0.0
 40
0.0
 41
0.0
  0
SEQEND
  8
0
  5
377
  0
POLYLINE
  8
1
  6
CONTINUOUS
 62
   250
 48
0.2
  5
378
 66
     1
 10
0.0
 20
0.0
 30
0.0
 70
   128
  0
VERTEX
  8
1
  6
CONTINUOUS
 62
   250
 48
0.2
  5
379
 10
20.379906
 20
11.089427
 30
0.0
 40
0.0
 41
0.0
  0
VERTEX
  8
1
  6
CONTINUOUS
 62
   250
 48
0.2
  5
37A
 10
22.01824
 20
11.089427
 30
0.0
 40
0.0
 41
0.0
  0
SEQEND
  8
0
  5
37B
  0
POLYLINE
  8
1
  6
CONTINUOUS
 62
   250
 48
0.2
  5
37C
 66
     1
 10
0.0
 20
0.0
 30
0.0
 70
   128
  0
VERTEX
  8
1
  6
CONTINUOUS
 62
   250
 48
0.2
  5
37D
 10
21.81824
 20
11.129428
 30
0.0
 40
0.0
 41
0.0
  0
VERTEX
  8
1
  6
CONTINUOUS
 62
   250
 48
0.2
  5
37E
 10
22.01824
 20
11.089427
 30
0.0
 40
0.0
 41
0.0
  0
VERTEX
  8
1
  6
CONTINUOUS
 62
   250
 48
0.2
  5
37F
 10
21.81824
 20
11.049426
 30
0.0
 40
0.0
 41
0.0
  0
SEQEND
  8
0
  5
380
  0
TEXT
  8
1
 62
   250
 48
0.0
  5
381
 10
19.506573
 20
10.989428
 30
0.0
 40
0.200001
  1
4.250
 72
     5
 11
20.279906
 21
10.989428
 31
0.0
210
0.0
220
0.0
230
1.0
  0
POLYLINE
  8
1
  6
CONTINUOUS
 62
   250
 48
0.2
  5
382
 66
     1
 10
0.0
 20
0.0
 30
0.0
 70
   128
  0
VERTEX
  8
1
  6
CONTINUOUS
 62
   250
 48
0.2
  5
383
 10
-1.40176
 20
4.467806
 30
0.0
 40
0.0
 41
0.0
  0
VERTEX
  8
1
  6
CONTINUOUS
 62
   250
 48
0.2
  5
384
 10
-1.40176
 20
3.104459
 30
0.0
 40
0.0
 41
0.0
  0
SEQEND
  8
0
  5
385
  0
POLYLINE
  8
1
  6
CONTINUOUS
 62
   250
 48
0.2
  5
386
 66
     1
 10
0.0
 20
0.0
 30
0.0
 70
   128
  0
VERTEX
  8
1
  6
CONTINUOUS
 62
   250
 48
0.2
  5
387
 10
19.618241
 20
6.44781
 30
0.0
 40
0.0
 41
0.0
  0
VERTEX
  8
1
  6
CONTINUOUS
 62
   250
 48
0.2
  5
388
 10
19.618241
 20
3.104459
 30
0.0
 40
0.0
 41
0.0
  0
SEQEND
  8
0
  5
389
  0
POLYLINE
  8
1
  6
CONTINUOUS
 62
   250
 48
0.2
  5
38A
 66
     1
 10
0.0
 20
0.0
 30
0.0
 70
   128
  0
VERTEX
  8
1
  6
CONTINUOUS
 62
   250
 48
0.2
  5
38B
 10
8.568242
 20
3.204459
 30
0.0
 40
0.0
 41
0.0
  0
VERTEX
  8
1
  6
CONTINUOUS
 62
   250
 48
0.2
  5
38C
 10
-1.40176
 20
3.204459
 30
0.0
 40
0.0
 41
0.0
  0
SEQEND
  8
0
  5
38D
  0
POLYLINE
  8
1
  6
CONTINUOUS
 62
   250
 48
0.2
  5
38E
 66
     1
 10
0.0
 20
0.0
 30
0.0
 70
   128
  0
VERTEX
  8
1
  6
CONTINUOUS
 62
   250
 48
0.2
  5
38F
 10
-1.201759
 20
3.164458
 30
0.0
 40
0.0
 41
0.0
  0
VERTEX
  8
1
  6
CONTINUOUS
 62
   250
 48
0.2
  5
390
 10
-1.40176
 20
3.204459
 30
0.0
 40
0.0
 41
0.0
  0
VERTEX
  8
1
  6
CONTINUOUS
 62
   250
 48
0.2
  5
391
 10
-1.201759
 20
3.24446
 30
0.0
 40
0.0
 41
0.0
  0
SEQEND
  8
0
  5
392
  0
POLYLINE
  8
1
  6
CONTINUOUS
 62
   250
 48
0.2
  5
393
 66
     1
 10
0.0
 20
0.0
 30
0.0
 70
   128
  0
VERTEX
  8
1
  6
CONTINUOUS
 62
   250
 48
0.2
  5
394
 10
9.648239
 20
3.204459
 30
0.0
 40
0.0
 41
0.0
  0
VERTEX
  8
1
  6
CONTINUOUS
 62
   250
 48
0.2
  5
395
 10
19.618241
 20
3.204459
 30
0.0
 40
0.0
 41
0.0
  0
SEQEND
  8
0
  5
396
  0
POLYLINE
  8
1
  6
CONTINUOUS
 62
   250
 48
0.2
  5
397
 66
     1
 10
0.0
 20
0.0
 30
0.0
 70
   128
  0
VERTEX
  8
1
  6
CONTINUOUS
 62
   250
 48
0.2
  5
398
 10
19.418241
 20
3.24446
 30
0.0
 40
0.0
 41
0.0
  0
VERTEX
  8
1
  6
CONTINUOUS
 62
   250
 48
0.2
  5
399
 10
19.618241
 20
3.204459
 30
0.0
 40
0.0
 41
0.0
  0
VERTEX
  8
1
  6
CONTINUOUS
 62
   250
 48
0.2
  5
39A
 10
19.418241
 20
3.164458
 30
0.0
 40
0.0
 41
0.0
  0
SEQEND
  8
0
  5
39B
  0
TEXT
  8
1
 62
   250
 48
0.0
  5
39C
 10
8.66824
 20
3.104459
 30
0.0
 40
0.200001
  1
21.020
 72
     5
 11
9.548241
 21
3.104459
 31
0.0
210
0.0
220
0.0
230
1.0
  0
POLYLINE
  8
1
  6
CONTINUOUS
 62
   250
 48
0.2
  5
39D
 66
     1
 10
0.0
 20
0.0
 30
0.0
 70
   128
  0
VERTEX
  8
1
  6
CONTINUOUS
 62
   250
 48
0.2
  5
39E
 10
-1.65176
 20
9.397864
 30
0.0
 40
0.0
 41
0.0
  0
VERTEX
  8
1
  6
CONTINUOUS
 62
   250
 48
0.2
  5
39F
 10
-1.65176
 20
11.214576
 30
0.0
 40
0.0
 41
0.0
  0
SEQEND
  8
0
  5
3A0
  0
POLYLINE
  8
1
  6
CONTINUOUS
 62
   250
 48
0.2
  5
3A1
 66
     1
 10
0.0
 20
0.0
 30
0.0
 70
   128
  0
VERTEX
  8
1
  6
CONTINUOUS
 62
   250
 48
0.2
  5
3A2
 10
3.59824
 20
9.396758
 30
0.0
 40
0.0
 41
0.0
  0
VERTEX
  8
1
  6
CONTINUOUS
 62
   250
 48
0.2
  5
3A3
 10
3.59824
 20
11.214576
 30
0.0
 40
0.0
 41
0.0
  0
SEQEND
  8
0
  5
3A4
  0
POLYLINE
  8
1
  6
CONTINUOUS
 62
   250
 48
0.2
  5
3A5
 66
     1
 10
0.0
 20
0.0
 30
0.0
 70
   128
  0
VERTEX
  8
1
  6
CONTINUOUS
 62
   250
 48
0.2
  5
3A6
 10
0.496098
 20
11.114577
 30
0.0
 40
0.0
 41
0.0
  0
VERTEX
  8
1
  6
CONTINUOUS
 62
   250
 48
0.2
  5
3A7
 10
-1.65176
 20
11.114577
 30
0.0
 40
0.0
 41
0.0
  0
SEQEND
  8
0
  5
3A8
  0
POLYLINE
  8
1
  6
CONTINUOUS
 62
   250
 48
0.2
  5
3A9
 66
     1
 10
0.0
 20
0.0
 30
0.0
 70
   128
  0
VERTEX
  8
1
  6
CONTINUOUS
 62
   250
 48
0.2
  5
3AA
 10
-1.451759
 20
11.074577
 30
0.0
 40
0.0
 41
0.0
  0
VERTEX
  8
1
  6
CONTINUOUS
 62
   250
 48
0.2
  5
3AB
 10
-1.65176
 20
11.114577
 30
0.0
 40
0.0
 41
0.0
  0
VERTEX
  8
1
  6
CONTINUOUS
 62
   250
 48
0.2
  5
3AC
 10
-1.451759
 20
11.154578
 30
0.0
 40
0.0
 41
0.0
  0
SEQEND
  8
0
  5
3AD
  0
POLYLINE
  8
1
  6
CONTINUOUS
 62
   250
 48
0.2
  5
3AE
 66
     1
 10
0.0
 20
0.0
 30
0.0
 70
   128
  0
VERTEX
  8
1
  6
CONTINUOUS
 62
   250
 48
0.2
  5
3AF
 10
1.450383
 20
11.114577
 30
0.0
 40
0.0
 41
0.0
  0
VERTEX
  8
1
  6
CONTINUOUS
 62
   250
 48
0.2
  5
3B0
 10
3.59824
 20
11.114577
 30
0.0
 40
0.0
 41
0.0
  0
SEQEND
  8
0
  5
3B1
  0
POLYLINE
  8
1
  6
CONTINUOUS
 62
   250
 48
0.2
  5
3B2
 66
     1
 10
0.0
 20
0.0
 30
0.0
 70
   128
  0
VERTEX
  8
1
  6
CONTINUOUS
 62
   250
 48
0.2
  5
3B3
 10
3.398239
 20
11.154578
 30
0.0
 40
0.0
 41
0.0
  0
VERTEX
  8
1
  6
CONTINUOUS
 62
   250
 48
0.2
  5
3B4
 10
3.59824
 20
11.114577
 30
0.0
 40
0.0
 41
0.0
  0
VERTEX
  8
1
  6
CONTINUOUS
 62
   250
 48
0.2
  5
3B5
 10
3.398239
 20
11.074576
 30
0.0
 40
0.0
 41
0.0
  0
SEQEND
  8
0
  5
3B6
  0
TEXT
  8
1
 62
   250
 48
0.0
  5
3B7
 10
0.596096
 20
11.014579
 30
0.0
 40
0.200001
  1
5.250
 72
     5
 11
1.350384
 21
11.014579
 31
0.0
210
0.0
220
0.0
230
1.0
  0
POLYLINE
  8
4
  6
CONTINUOUS
 62
   174
 48
0.2
  5
3B8
 66
     1
 10
0.0
 20
0.0
 30
0.0
 70
   128
  0
VERTEX
  8
4
  6
CONTINUOUS
 62
   174
 48
0.2
  5
3B9
 10
22.51824
 20
8.08031
 30
0.0
 40
0.0
 41
0.0
  0
VERTEX
  8
4
  6
CONTINUOUS
 62
   174
 48
0.2
  5
3BA
 10
4.287922
 20
8.0792
 30
0.0
 40
0.0
 41
0.0
  0
SEQEND
  8
0
  5
3BB
  0
POLYLINE
  8
4
  6
CONTINUOUS
 62
   174
 48
0.2
  5
3BC
 66
     1
 10
0.0
 20
0.0
 30
0.0
 70
   128
  0
VERTEX
  8
4
  6
CONTINUOUS
 62
   174
 48
0.2
  5
3BD
 10
22.51824
 20
7.45531
 30
0.0
 40
0.0
 41
0.0
  0
VERTEX
  8
4
  6
CONTINUOUS
 62
   174
 48
0.2
  5
3BE
 10
4.287922
 20
7.4542
 30
0.0
 40
0.0
 41
0.0
  0
SEQEND
  8
0
  5
3BF
  0
POLYLINE
  8
4
  6
CONTINUOUS
 62
   174
 48
0.2
  5
3C0
 66
     1
 10
0.0
 20
0.0
 30
0.0
 70
   128
  0
VERTEX
  8
4
  6
CONTINUOUS
 62
   174
 48
0.2
  5
3C1
 10
22.51824
 20
8.08031
 30
0.0
 40
0.0
 41
0.0
  0
VERTEX
  8
4
  6
CONTINUOUS
 62
   174
 48
0.2
  5
3C2
 10
22.51824
 20
7.45531
 30
0.0
 40
0.0
 41
0.0
  0
SEQEND
  8
0
  5
3C3
  0
POLYLINE
  8
4
  6
CONTINUOUS
 62
   174
 48
0.2
  5
3C4
 66
     1
 10
0.0
 20
0.0
 30
0.0
 70
   128
  0
VERTEX
  8
4
  6
CONTINUOUS
 62
   174
 48
0.2
  5
3C5
 10
32.103239
 20
10.152809
 30
0.0
 40
0.0
 41
0.0
  0
VERTEX
  8
4
  6
CONTINUOUS
 62
   174
 48
0.2
  5
3C6
 10
30.953239
 20
10.152809
 30
0.0
 40
0.0
 41
0.0
  0
SEQEND
  8
0
  5
3C7
  0
POLYLINE
  8
4
  6
CONTINUOUS
 62
   174
 48
0.2
  5
3C8
 66
     1
 10
0.0
 20
0.0
 30
0.0
 70
   128
  0
VERTEX
  8
4
  6
CONTINUOUS
 62
   174
 48
0.2
  5
3C9
 10
32.103239
 20
10.152809
 30
0.0
 40
0.0
 41
0.0
  0
VERTEX
  8
4
  6
CONTINUOUS
 62
   174
 48
0.2
  5
3CA
 10
32.103239
 20
9.177809
 30
0.0
 40
0.0
 41
0.0
  0
SEQEND
  8
0
  5
3CB
  0
POLYLINE
  8
4
  6
CONTINUOUS
 62
   174
 48
0.2
  5
3CC
 66
     1
 10
0.0
 20
0.0
 30
0.0
 70
   128
  0
VERTEX
  8
4
  6
CONTINUOUS
 62
   174
 48
0.2
  5
3CD
 10
32.103239
 20
9.177809
 30
0.0
 40
0.0
 41
0.0
  0
VERTEX
  8
4
  6
CONTINUOUS
 62
   174
 48
0.2
  5
3CE
 10
31.643238
 20
9.177809
 30
0.0
 40
0.0
 41
0.0
  0
SEQEND
  8
0
  5
3CF
  0
POLYLINE
  8
4
  6
CONTINUOUS
 62
   174
 48
0.2
  5
3D0
 66
     1
 10
0.0
 20
0.0
 30
0.0
 70
   128
  0
VERTEX
  8
4
  6
CONTINUOUS
 62
   174
 48
0.2
  5
3D1
 10
30.953239
 20
10.152809
 30
0.0
 40
0.0
 41
0.0
  0
VERTEX
  8
4
  6
CONTINUOUS
 62
   174
 48
0.2
  5
3D2
 10
30.953239
 20
9.527809
 30
0.0
 40
0.0
 41
0.0
  0
SEQEND
  8
0
  5
3D3
  0
POLYLINE
  8
4
  6
CONTINUOUS
 62
   174
 48
0.2
  5
3D4
 66
     1
 10
0.0
 20
0.0
 30
0.0
 70
   128
  0
VERTEX
  8
4
  6
CONTINUOUS
 62
   174
 48
0.2
  5
3D5
 10
31.643238
 20
9.177809
 30
0.0
 40
0.0
 41
0.0
  0
VERTEX
  8
4
  6
CONTINUOUS
 62
   174
 48
0.2
  5
3D6
 10
31.643238
 20
9.527809
 30
0.0
 40
0.0
 41
0.0
  0
VERTEX
  8
4
  6
CONTINUOUS
 62
   174
 48
0.2
  5
3D7
 10
30.953239
 20
9.527809
 30
0.0
 40
0.0
 41
0.0
  0
SEQEND
  8
0
  5
3D8
  0
POLYLINE
  8
4
  6
CONTINUOUS
 62
   174
 48
0.2
  5
3D9
 66
     1
 10
0.0
 20
0.0
 30
0.0
 70
   128
  0
VERTEX
  8
4
  6
CONTINUOUS
 62
   174
 48
0.2
  5
3DA
 10
9.55324
 20
10.152809
 30
0.0
 40
0.0
 41
0.0
  0
VERTEX
  8
4
  6
CONTINUOUS
 62
   174
 48
0.2
  5
3DB
 10
9.55324
 20
9.527809
 30
0.0
 40
0.0
 41
0.0
  0
SEQEND
  8
0
  5
3DC
  0
POLYLINE
  8
4
  6
CONTINUOUS
 62
   174
 48
0.2
  5
3DD
 66
     1
 10
0.0
 20
0.0
 30
0.0
 70
   128
  0
VERTEX
  8
4
  6
CONTINUOUS
 62
   174
 48
0.2
  5
3DE
 10
13.50324
 20
10.152809
 30
0.0
 40
0.0
 41
0.0
  0
VERTEX
  8
4
  6
CONTINUOUS
 62
   174
 48
0.2
  5
3DF
 10
13.50324
 20
9.527809
 30
0.0
 40
0.0
 41
0.0
  0
VERTEX
  8
4
  6
CONTINUOUS
 62
   174
 48
0.2
  5
3E0
 10
9.55324
 20
9.527809
 30
0.0
 40
0.0
 41
0.0
  0
SEQEND
  8
0
  5
3E1
  0
POLYLINE
  8
4
  6
HIDDEN
 62
   174
 48
0.2
  5
3E2
 66
     1
 10
0.0
 20
0.0
 30
0.0
 70
   128
  0
VERTEX
  8
4
  6
HIDDEN
 62
   174
 48
0.2
  5
3E3
 10
13.50324
 20
9.177809
 30
0.0
 40
0.0
 41
0.0
  0
VERTEX
  8
4
  6
HIDDEN
 62
   174
 48
0.2
  5
3E4
 10
9.55324
 20
9.177809
 30
0.0
 40
0.0
 41
0.0
  0
SEQEND
  8
0
  5
3E5
  0
POLYLINE
  8
4
  6
HIDDEN
 62
   174
 48
0.2
  5
3E6
 66
     1
 10
0.0
 20
0.0
 30
0.0
 70
   128
  0
VERTEX
  8
4
  6
HIDDEN
 62
   174
 48
0.2
  5
3E7
 10
9.55324
 20
9.177809
 30
0.0
 40
0.0
 41
0.0
  0
VERTEX
  8
4
  6
HIDDEN
 62
   174
 48
0.2
  5
3E8
 10
9.55324
 20
9.527809
 30
0.0
 40
0.0
 41
0.0
  0
SEQEND
  8
0
  5
3E9
  0
POLYLINE
  8
4
  6
CONTINUOUS
 62
   174
 48
0.2
  5
3EA
 66
     1
 10
0.0
 20
0.0
 30
0.0
 70
   128
  0
VERTEX
  8
4
  6
CONTINUOUS
 62
   174
 48
0.2
  5
3EB
 10
13.50324
 20
9.177809
 30
0.0
 40
0.0
 41
0.0
  0
VERTEX
  8
4
  6
CONTINUOUS
 62
   174
 48
0.2
  5
3EC
 10
13.50324
 20
9.527809
 30
0.0
 40
0.0
 41
0.0
  0
SEQEND
  8
0
  5
3ED
  0
POLYLINE
  8
4
  6
CONTINUOUS
 62
   174
 48
0.2
  5
3EE
 66
     1
 10
0.0
 20
0.0
 30
0.0
 70
   128
  0
VERTEX
  8
4
  6
CONTINUOUS
 62
   174
 48
0.2
  5
3EF
 10
12.80324
 20
10.152809
 30
0.0
 40
0.0
 41
0.0
  0
VERTEX
  8
4
  6
CONTINUOUS
 62
   174
 48
0.2
  5
3F0
 10
12.80324
 20
10.227809
 30
0.0
 40
0.0
 41
0.0
  0
SEQEND
  8
0
  5
3F1
  0
POLYLINE
  8
4
  6
CONTINUOUS
 62
   174
 48
0.2
  5
3F2
 66
     1
 10
0.0
 20
0.0
 30
0.0
 70
   128
  0
VERTEX
  8
4
  6
CONTINUOUS
 62
   174
 48
0.2
  5
3F3
 10
10.253241
 20
10.152809
 30
0.0
 40
0.0
 41
0.0
  0
VERTEX
  8
4
  6
CONTINUOUS
 62
   174
 48
0.2
  5
3F4
 10
10.253241
 20
10.227809
 30
0.0
 40
0.0
 41
0.0
  0
SEQEND
  8
0
  5
3F5
  0
POLYLINE
  8
4
  6
CONTINUOUS
 62
   174
 48
0.2
  5
3F6
 66
     1
 10
0.0
 20
0.0
 30
0.0
 70
   128
  0
VERTEX
  8
4
  6
CONTINUOUS
 62
   174
 48
0.2
  5
3F7
 10
9.55324
 20
10.152809
 30
0.0
 40
0.0
 41
0.0
  0
VERTEX
  8
4
  6
CONTINUOUS
 62
   174
 48
0.2
  5
3F8
 10
10.253241
 20
10.152809
 30
0.0
 40
0.0
 41
0.0
  0
SEQEND
  8
0
  5
3F9
  0
POLYLINE
  8
4
  6
CONTINUOUS
 62
   174
 48
0.2
  5
3FA
 66
     1
 10
0.0
 20
0.0
 30
0.0
 70
   128
  0
VERTEX
  8
4
  6
CONTINUOUS
 62
   174
 48
0.2
  5
3FB
 10
12.80324
 20
10.152809
 30
0.0
 40
0.0
 41
0.0
  0
VERTEX
  8
4
  6
CONTINUOUS
 62
   174
 48
0.2
  5
3FC
 10
13.50324
 20
10.152809
 30
0.0
 40
0.0
 41
0.0
  0
SEQEND
  8
0
  5
3FD
  0
POLYLINE
  8
4
  6
CONTINUOUS
 62
   174
 48
0.2
  5
3FE
 66
     1
 10
0.0
 20
0.0
 30
0.0
 70
   128
  0
VERTEX
  8
4
  6
CONTINUOUS
 62
   174
 48
0.2
  5
3FF
 10
10.55324
 20
10.477809
 30
0.0
 40
0.0
 41
0.0
  0
VERTEX
  8
4
  6
CONTINUOUS
 62
   174
 48
0.2
  5
400
 10
12.203239
 20
10.477809
 30
0.0
 40
0.0
 41
0.0
  0
SEQEND
  8
0
  5
401
  0
POLYLINE
  8
4
  6
CONTINUOUS
 62
   174
 48
0.2
  5
402
 66
     1
 10
0.0
 20
0.0
 30
0.0
 70
   128
  0
VERTEX
  8
4
  6
CONTINUOUS
 62
   174
 48
0.2
  5
403
 10
10.55324
 20
10.477809
 30
0.0
 40
0.0
 41
0.0
  0
VERTEX
  8
4
  6
CONTINUOUS
 62
   174
 48
0.2
  5
404
 10
10.697577
 20
10.227809
 30
0.0
 40
0.0
 41
0.0
  0
SEQEND
  8
0
  5
405
  0
POLYLINE
  8
4
  6
CONTINUOUS
 62
   174
 48
0.2
  5
406
 66
     1
 10
0.0
 20
0.0
 30
0.0
 70
   128
  0
VERTEX
  8
4
  6
CONTINUOUS
 62
   174
 48
0.2
  5
407
 10
12.203239
 20
10.477809
 30
0.0
 40
0.0
 41
0.0
  0
VERTEX
  8
4
  6
CONTINUOUS
 62
   174
 48
0.2
  5
408
 10
12.058902
 20
10.227809
 30
0.0
 40
0.0
 41
0.0
  0
SEQEND
  8
0
  5
409
  0
POLYLINE
  8
4
  6
CONTINUOUS
 62
   174
 48
0.2
  5
40A
 66
     1
 10
0.0
 20
0.0
 30
0.0
 70
   128
  0
VERTEX
  8
4
  6
CONTINUOUS
 62
   174
 48
0.2
  5
40B
 10
10.697577
 20
10.227809
 30
0.0
 40
0.0
 41
0.0
  0
VERTEX
  8
4
  6
CONTINUOUS
 62
   174
 48
0.2
  5
40C
 10
10.253241
 20
10.227809
 30
0.0
 40
0.0
 41
0.0
  0
SEQEND
  8
0
  5
40D
  0
POLYLINE
  8
4
  6
CONTINUOUS
 62
   174
 48
0.2
  5
40E
 66
     1
 10
0.0
 20
0.0
 30
0.0
 70
   128
  0
VERTEX
  8
4
  6
CONTINUOUS
 62
   174
 48
0.2
  5
40F
 10
12.058902
 20
10.227809
 30
0.0
 40
0.0
 41
0.0
  0
VERTEX
  8
4
  6
CONTINUOUS
 62
   174
 48
0.2
  5
410
 10
12.80324
 20
10.227809
 30
0.0
 40
0.0
 41
0.0
  0
SEQEND
  8
0
  5
411
  0
CIRCLE
  8
4
  6
CONTINUOUS
 62
   174
 48
0.2
  5
412
 10
-11.378241
 20
10.05281
 30
0.0
 40
0.225
210
0.0
220
0.0
230
-1.0
  0
CIRCLE
  8
4
  6
CONTINUOUS
 62
   174
 48
0.2
  5
413
 10
-10.97824
 20
10.05281
 30
0.0
 40
0.075
210
0.0
220
0.0
230
-1.0
  0
CIRCLE
  8
4
  6
CONTINUOUS
 62
   174
 48
0.2
  5
414
 10
-11.77824
 20
10.05281
 30
0.0
 40
0.075
210
0.0
220
0.0
230
-1.0
  0
POLYLINE
  8
4
  6
CONTINUOUS
 62
   174
 48
0.2
  5
415
 66
     1
 10
0.0
 20
0.0
 30
0.0
 70
   128
  0
VERTEX
  8
4
  6
CONTINUOUS
 62
   174
 48
0.2
  5
416
 10
13.50324
 20
9.177809
 30
0.0
 40
0.0
 41
0.0
  0
VERTEX
  8
4
  6
CONTINUOUS
 62
   174
 48
0.2
  5
417
 10
13.50324
 20
6.852809
 30
0.0
 40
0.0
 41
0.0
  0
SEQEND
  8
0
  5
418
  0
ARC
  8
4
  6
CONTINUOUS
 62
   174
 48
0.2
  5
419
 10
-9.05324
 20
7.602809
 30
0.0
 40
0.75
 50
270.0
 51
360.0
210
0.0
220
0.0
230
-1.0
  0
POLYLINE
  8
4
  6
CONTINUOUS
 62
   174
 48
0.2
  5
41A
 66
     1
 10
0.0
 20
0.0
 30
0.0
 70
   128
  0
VERTEX
  8
4
  6
CONTINUOUS
 62
   174
 48
0.2
  5
41B
 10
9.05324
 20
6.852809
 30
0.0
 40
0.0
 41
0.0
  0
VERTEX
  8
4
  6
CONTINUOUS
 62
   174
 48
0.2
  5
41C
 10
13.50324
 20
6.852809
 30
0.0
 40
0.0
 41
0.0
  0
SEQEND
  8
0
  5
41D
  0
POLYLINE
  8
4
  6
CONTINUOUS
 62
   174
 48
0.2
  5
41E
 66
     1
 10
0.0
 20
0.0
 30
0.0
 70
   128
  0
VERTEX
  8
4
  6
CONTINUOUS
 62
   174
 48
0.2
  5
41F
 10
8.30324
 20
7.602809
 30
0.0
 40
0.0
 41
0.0
  0
VERTEX
  8
4
  6
CONTINUOUS
 62
   174
 48
0.2
  5
420
 10
8.30324
 20
7.602809
 30
0.0
 40
0.0
 41
0.0
  0
SEQEND
  8
0
  5
421
  0
ARC
  8
4
  6
CONTINUOUS
 62
   174
 48
0.2
  5
422
 10
-9.05324
 20
7.602809
 30
0.0
 40
0.75
 50
0.0
 51
90.0
210
0.0
220
0.0
230
-1.0
  0
POLYLINE
  8
4
  6
CONTINUOUS
 62
   174
 48
0.2
  5
423
 66
     1
 10
0.0
 20
0.0
 30
0.0
 70
   128
  0
VERTEX
  8
4
  6
CONTINUOUS
 62
   174
 48
0.2
  5
424
 10
9.05324
 20
8.352809
 30
0.0
 40
0.0
 41
0.0
  0
VERTEX
  8
4
  6
CONTINUOUS
 62
   174
 48
0.2
  5
425
 10
9.05324
 20
8.352809
 30
0.0
 40
0.0
 41
0.0
  0
SEQEND
  8
0
  5
426
  0
CIRCLE
  8
4
  6
CONTINUOUS
 62
   174
 48
0.2
  5
427
 10
-9.05324
 20
7.602809
 30
0.0
 40
0.625
210
0.0
220
0.0
230
-1.0
  0
POLYLINE
  8
4
  6
HIDDEN
 62
   174
 48
0.2
  5
428
 66
     1
 10
0.0
 20
0.0
 30
0.0
 70
   128
  0
VERTEX
  8
4
  6
HIDDEN
 62
   174
 48
0.2
  5
429
 10
13.103239
 20
6.852809
 30
0.0
 40
0.0
 41
0.0
  0
VERTEX
  8
4
  6
HIDDEN
 62
   174
 48
0.2
  5
42A
 10
13.103239
 20
9.177809
 30
0.0
 40
0.0
 41
0.0
  0
SEQEND
  8
0
  5
42B
  0
POLYLINE
  8
4
  6
HIDDEN
 62
   174
 48
0.2
  5
42C
 66
     1
 10
0.0
 20
0.0
 30
0.0
 70
   128
  0
VERTEX
  8
4
  6
HIDDEN
 62
   174
 48
0.2
  5
42D
 10
11.90324
 20
9.177809
 30
0.0
 40
0.0
 41
0.0
  0
VERTEX
  8
4
  6
HIDDEN
 62
   174
 48
0.2
  5
42E
 10
11.90324
 20
6.852809
 30
0.0
 40
0.0
 41
0.0
  0
SEQEND
  8
0
  5
42F
  0
POLYLINE
  8
7
  6
CONTINUOUS
 62
   214
 48
0.2
  5
430
 66
     1
 10
0.0
 20
0.0
 30
0.0
 70
   128
  0
VERTEX
  8
7
  6
CONTINUOUS
 62
   214
 48
0.2
  5
431
 10
11.77824
 20
7.66781
 30
0.0
 40
0.0
 41
0.0
  0
VERTEX
  8
7
  6
CONTINUOUS
 62
   214
 48
0.2
  5
432
 10
11.77824
 20
7.66781
 30
0.0
 40
0.0
 41
0.0
  0
SEQEND
  8
0
  5
433
  0
POLYLINE
  8
7
  6
CONTINUOUS
 62
   214
 48
0.2
  5
434
 66
     1
 10
0.0
 20
0.0
 30
0.0
 70
   128
  0
VERTEX
  8
7
  6
CONTINUOUS
 62
   214
 48
0.2
  5
435
 10
11.77824
 20
8.26781
 30
0.0
 40
0.0
 41
0.0
  0
VERTEX
  8
7
  6
CONTINUOUS
 62
   214
 48
0.2
  5
436
 10
10.77824
 20
8.26781
 30
0.0
 40
0.0
 41
0.0
  0
VERTEX
  8
7
  6
CONTINUOUS
 62
   214
 48
0.2
  5
437
 10
10.77824
 20
7.26781
 30
0.0
 40
0.0
 41
0.0
  0
VERTEX
  8
7
  6
CONTINUOUS
 62
   214
 48
0.2
  5
438
 10
11.77824
 20
7.26781
 30
0.0
 40
0.0
 41
0.0
  0
VERTEX
  8
7
  6
CONTINUOUS
 62
   214
 48
0.2
  5
439
 10
11.77824
 20
8.26781
 30
0.0
 40
0.0
 41
0.0
  0
SEQEND
  8
0
  5
43A
  0
CIRCLE
  8
7
  6
CONTINUOUS
 62
   214
 48
0.2
  5
43B
 10
-11.27824
 20
6.83031
 30
0.0
 40
0.5
210
0.0
220
0.0
230
-1.0
  0
CIRCLE
  8
7
  6
CONTINUOUS
 62
   214
 48
0.2
  5
43C
 10
-11.27824
 20
6.83031
 30
0.0
 40
0.25
210
0.0
220
0.0
230
-1.0
  0
POLYLINE
  8
7
  6
CONTINUOUS
 62
   214
 48
0.2
  5
43D
 66
     1
 10
0.0
 20
0.0
 30
0.0
 70
   128
  0
VERTEX
  8
7
  6
CONTINUOUS
 62
   214
 48
0.2
  5
43E
 10
28.97074
 20
6.830309
 30
0.0
 40
0.0
 41
0.0
  0
VERTEX
  8
7
  6
CONTINUOUS
 62
   214
 48
0.2
  5
43F
 10
25.97074
 20
6.830309
 30
0.0
 40
0.0
 41
0.0
  0
SEQEND
  8
0
  5
440
  0
POLYLINE
  8
7
  6
CONTINUOUS
 62
   214
 48
0.2
  5
441
 66
     1
 10
0.0
 20
0.0
 30
0.0
 70
   128
  0
VERTEX
  8
7
  6
CONTINUOUS
 62
   214
 48
0.2
  5
442
 10
28.97074
 20
7.080309
 30
0.0
 40
0.0
 41
0.0
  0
VERTEX
  8
7
  6
CONTINUOUS
 62
   214
 48
0.2
  5
443
 10
25.97074
 20
7.080309
 30
0.0
 40
0.0
 41
0.0
  0
SEQEND
  8
0
  5
444
  0
POLYLINE
  8
7
  6
CONTINUOUS
 62
   214
 48
0.2
  5
445
 66
     1
 10
0.0
 20
0.0
 30
0.0
 70
   128
  0
VERTEX
  8
7
  6
CONTINUOUS
 62
   214
 48
0.2
  5
446
 10
28.97074
 20
6.580309
 30
0.0
 40
0.0
 41
0.0
  0
VERTEX
  8
7
  6
CONTINUOUS
 62
   214
 48
0.2
  5
447
 10
25.97074
 20
6.580309
 30
0.0
 40
0.0
 41
0.0
  0
SEQEND
  8
0
  5
448
  0
POLYLINE
  8
7
  6
CONTINUOUS
 62
   214
 48
0.2
  5
449
 66
     1
 10
0.0
 20
0.0
 30
0.0
 70
   128
  0
VERTEX
  8
7
  6
CONTINUOUS
 62
   214
 48
0.2
  5
44A
 10
28.97074
 20
7.080309
 30
0.0
 40
0.0
 41
0.0
  0
VERTEX
  8
7
  6
CONTINUOUS
 62
   214
 48
0.2
  5
44B
 10
28.97074
 20
6.580309
 30
0.0
 40
0.0
 41
0.0
  0
SEQEND
  8
0
  5
44C
  0
POLYLINE
  8
7
  6
CONTINUOUS
 62
   214
 48
0.2
  5
44D
 66
     1
 10
0.0
 20
0.0
 30
0.0
 70
   128
  0
VERTEX
  8
7
  6
CONTINUOUS
 62
   214
 48
0.2
  5
44E
 10
25.97074
 20
7.080309
 30
0.0
 40
0.0
 41
0.0
  0
VERTEX
  8
7
  6
CONTINUOUS
 62
   214
 48
0.2
  5
44F
 10
25.97074
 20
6.580309
 30
0.0
 40
0.0
 41
0.0
  0
SEQEND
  8
0
  5
450
  0
CIRCLE
  8
1
  6
CONTINUOUS
 62
   250
 48
0.2
  5
451
 10
-11.378241
 20
10.05281
 30
0.0
 40
0.5
210
0.0
220
0.0
230
-1.0
  0
POLYLINE
  8
1
  6
CONTINUOUS
 62
   250
 48
0.2
  5
452
 66
     1
 10
0.0
 20
0.0
 30
0.0
 70
   128
  0
VERTEX
  8
1
  6
CONTINUOUS
 62
   250
 48
0.2
  5
453
 10
10.55024
 20
6.852809
 30
0.0
 40
0.0
 41
0.0
  0
VERTEX
  8
1
  6
CONTINUOUS
 62
   250
 48
0.2
  5
454
 10
10.55024
 20
6.852809
 30
0.0
 40
0.0
 41
0.0
  0
SEQEND
  8
0
  5
455
  0
CIRCLE
  8
1
  6
CONTINUOUS
 62
   174
 48
0.2
  5
456
 10
-10.55024
 20
8.540809
 30
0.0
 40
0.3375
210
0.0
220
0.0
230
-1.0
  0
CIRCLE
  8
1
  6
CONTINUOUS
 62
   174
 48
0.2
  5
457
 10
-10.55024
 20
8.540809
 30
0.0
 40
1.15
210
0.0
220
0.0
230
-1.0
  0
POLYLINE
  8
1
  6
CONTINUOUS
 62
   174
 48
0.2
  5
458
 66
     1
 10
0.0
 20
0.0
 30
0.0
 70
   128
  0
VERTEX
  8
1
  6
CONTINUOUS
 62
   174
 48
0.2
  5
459
 10
9.05324
 20
8.352809
 30
0.0
 40
0.0
 41
0.0
  0
VERTEX
  8
1
  6
CONTINUOUS
 62
   174
 48
0.2
  5
45A
 10
9.55324
 20
9.527809
 30
0.0
 40
0.0
 41
0.0
  0
SEQEND
  8
0
  5
45B
  0
ENDSEC
  0
EOF
