  0
SECTION
  2
HEADER
  9
$ACADVER
  1
AC1014
  9
$ACADMAINTVER
 70
     6
  9
$DWGCODEPAGE
  3
ANSI_1252
  9
$INSBASE
 10
0.0
 20
0.0
 30
0.0
  9
$EXTMIN
 10
0.2999999999999998
 20
0.2999999999999998
 30
-0.00000001
  9
$EXTMAX
 10
10.71
 20
8.21
 30
0.00000001
  9
$LIMMIN
 10
0.0
 20
0.0
  9
$LIMMAX
 10
11.0
 20
8.5
  9
$ORTHOMODE
 70
     0
  9
$REGENMODE
 70
     1
  9
$FILLMODE
 70
     1
  9
$QTEXTMODE
 70
     0
  9
$MIRRTEXT
 70
     1
  9
$DRAGMODE
 70
     2
  9
$LTSCALE
 40
1.0
  9
$OSMODE
 70
     0
  9
$ATTMODE
 70
     1
  9
$TEXTSIZE
 40
0.15
  9
$TRACEWID
 40
0.05
  9
$TEXTSTYLE
  7
STANDARD
  9
$CLAYER
  8
0
  9
$CELTYPE
  6
BYLAYER
  9
$CECOLOR
 62
     7
  9
$CELTSCALE
 40
1.0
  9
$DELOBJ
 70
     1
  9
$DISPSILH
 70
     0
  9
$DIMSCALE
 40
1.0
  9
$DIMASZ
 40
0.18
  9
$DIMEXO
 40
0.0625
  9
$DIMDLI
 40
0.38
  9
$DIMRND
 40
0.0
  9
$DIMDLE
 40
0.0
  9
$DIMEXE
 40
0.18
  9
$DIMTP
 40
0.0
  9
$DIMTM
 40
0.0
  9
$DIMTXT
 40
0.125
  9
$DIMCEN
 40
0.09
  9
$DIMTSZ
 40
0.0
  9
$DIMTOL
 70
     0
  9
$DIMLIM
 70
     0
  9
$DIMTIH
 70
     1
  9
$DIMTOH
 70
     1
  9
$DIMSE1
 70
     0
  9
$DIMSE2
 70
     0
  9
$DIMTAD
 70
     0
  9
$DIMZIN
 70
     0
  9
$DIMBLK
  1

  9
$DIMASO
 70
     1
  9
$DIMSHO
 70
     1
  9
$DIMPOST
  1

  9
$DIMAPOST
  1

  9
$DIMALT
 70
     0
  9
$DIMALTD
 70
     2
  9
$DIMALTF
 40
25.4
  9
$DIMLFAC
 40
1.0
  9
$DIMTOFL
 70
     0
  9
$DIMTVP
 40
0.0
  9
$DIMTIX
 70
     0
  9
$DIMSOXD
 70
     0
  9
$DIMSAH
 70
     0
  9
$DIMBLK1
  1

  9
$DIMBLK2
  1

  9
$DIMSTYLE
  2
STANDARD
  9
$DIMCLRD
 70
     0
  9
$DIMCLRE
 70
     0
  9
$DIMCLRT
 70
     0
  9
$DIMTFAC
 40
1.0
  9
$DIMGAP
 40
0.09
  9
$DIMJUST
 70
     0
  9
$DIMSD1
 70
     0
  9
$DIMSD2
 70
     0
  9
$DIMTOLJ
 70
     1
  9
$DIMTZIN
 70
     0
  9
$DIMALTZ
 70
     0
  9
$DIMALTTZ
 70
     0
  9
$DIMFIT
 70
     3
  9
$DIMUPT
 70
     0
  9
$DIMUNIT
 70
     4
  9
$DIMDEC
 70
     4
  9
$DIMTDEC
 70
     4
  9
$DIMALTU
 70
     2
  9
$DIMALTTD
 70
     2
  9
$DIMTXSTY
  7
STANDARD
  9
$DIMAUNIT
 70
     1
  9
$LUNITS
 70
     2
  9
$LUPREC
 70
     4
  9
$SKETCHINC
 40
0.1
  9
$FILLETRAD
 40
0.5
  9
$AUNITS
 70
     0
  9
$AUPREC
 70
     3
  9
$MENU
  1
.
  9
$ELEVATION
 40
0.0
  9
$PELEVATION
 40
0.0
  9
$THICKNESS
 40
0.0
  9
$LIMCHECK
 70
     0
  9
$BLIPMODE
 70
     0
  9
$CHAMFERA
 40
0.25
  9
$CHAMFERB
 40
0.25
  9
$CHAMFERC
 40
0.0
  9
$CHAMFERD
 40
0.0
  9
$SKPOLY
 70
     0
  9
$TDCREATE
 40
2451634.391492245
  9
$TDUPDATE
 40
2349742.216378102
  9
$TDINDWG
 40
0.0000005787
  9
$TDUSRTIMER
 40
0.0000005787
  9
$USRTIMER
 70
     1
  9
$ANGBASE
 50
0.0
  9
$ANGDIR
 70
     0
  9
$PDMODE
 70
     0
  9
$PDSIZE
 40
0.0
  9
$PLINEWID
 40
0.0
  9
$COORDS
 70
     0
  9
$SPLFRAME
 70
     0
  9
$SPLINETYPE
 70
     6
  9
$SPLINESEGS
 70
     8
  9
$ATTDIA
 70
     0
  9
$ATTREQ
 70
     1
  9
$HANDLING
 70
 12289
  9
$HANDSEED
  5
CC
  9
$SURFTAB1
 70
     6
  9
$SURFTAB2
 70
     6
  9
$SURFTYPE
 70
     6
  9
$SURFU
 70
     6
  9
$SURFV
 70
     6
  9
$UCSNAME
  2

  9
$UCSORG
 10
0.0
 20
0.0
 30
0.0
  9
$UCSXDIR
 10
1.0
 20
0.0
 30
0.0
  9
$UCSYDIR
 10
0.0
 20
1.0
 30
0.0
  9
$PUCSNAME
  2

  9
$PUCSORG
 10
0.0
 20
0.0
 30
0.0
  9
$PUCSXDIR
 10
1.0
 20
0.0
 30
0.0
  9
$PUCSYDIR
 10
0.0
 20
1.0
 30
0.0
  9
$USERI1
 70
     0
  9
$USERI2
 70
     0
  9
$USERI3
 70
     0
  9
$USERI4
 70
     0
  9
$USERI5
 70
     0
  9
$USERR1
 40
0.0
  9
$USERR2
 40
0.0
  9
$USERR3
 40
0.0
  9
$USERR4
 40
0.0
  9
$USERR5
 40
0.0
  9
$WORLDVIEW
 70
     1
  9
$SHADEDGE
 70
     3
  9
$SHADEDIF
 70
    70
  9
$TILEMODE
 70
     1
  9
$MAXACTVP
 70
    64
  9
$PINSBASE
 10
0.0
 20
0.0
 30
0.0
  9
$PLIMCHECK
 70
     0
  9
$PEXTMIN
 10
1.000000000000000E+20
 20
1.000000000000000E+20
 30
1.000000000000000E+20
  9
$PEXTMAX
 10
-1.000000000000000E+20
 20
-1.000000000000000E+20
 30
-1.000000000000000E+20
  9
$PLIMMIN
 10
0.0
 20
0.0
  9
$PLIMMAX
 10
12.0
 20
9.0
  9
$UNITMODE
 70
     0
  9
$VISRETAIN
 70
     1
  9
$PLINEGEN
 70
     0
  9
$PSLTSCALE
 70
     1
  9
$TREEDEPTH
 70
  3020
  9
$PICKSTYLE
 70
     1
  9
$CMLSTYLE
  2
STANDARD
  9
$CMLJUST
 70
     0
  9
$CMLSCALE
 40
1.0
  9
$PROXYGRAPHICS
 70
     1
  9
$MEASUREMENT
 70
     0
  0
ENDSEC
  0
SECTION
  2
CLASSES
  0
CLASS
  1
ACDBDICTIONARYWDFLT
  2
AcDbDictionaryWithDefault
  3
AutoCAD 2000
 90
        0
280
     0
281
     0
  0
CLASS
  1
ACDBPLACEHOLDER
  2
AcDbPlaceHolder
  3
AutoCAD 2000
 90
        0
280
     0
281
     0
  0
CLASS
  1
LAYOUT
  2
AcDbLayout
  3
AutoCAD 2000
 90
        0
280
     0
281
     0
  0
CLASS
  1
LONG_TRANSACTION
  2
AcDbLongTransaction
  3
AutoCAD 2000
 90
        0
280
     0
281
     0
  0
CLASS
  1
LWPOLYLINE
  2
AcDbPolyline
  3
AutoCAD 2000
 90
        0
280
     0
281
     1
  0
CLASS
  1
HATCH
  2
AcDbHatch
  3
AutoCAD 2000
 90
        0
280
     0
281
     1
  0
CLASS
  1
XRECORD
  2
AcDbXrecord
  3
AutoCAD 2000
 90
        0
280
     0
281
     0
  0
ENDSEC
  0
SECTION
  2
TABLES
  0
TABLE
  2
VPORT
  5
8
330
0
100
AcDbSymbolTable
 70
     1
  0
VPORT
  5
13
330
8
100
AcDbSymbolTableRecord
100
AcDbViewportTableRecord
  2
*ACTIVE
 70
     0
 10
0.0
 20
0.0
 11
1.0
 21
1.0
 12
5.5
 22
4.25
 13
0.0
 23
0.0
 14
1.0
 24
1.0
 15
0.0
 25
0.0
 16
0.0
 26
0.0
 36
1.0
 17
0.0
 27
0.0
 37
0.0
 40
8.5
 41
1.294117647058823
 42
50.0
 43
0.0
 44
0.0
 50
0.0
 51
0.0
 71
     0
 72
   100
 73
     1
 74
     1
 75
     0
 76
     0
 77
     0
 78
     0
  0
ENDTAB
  0
TABLE
  2
LTYPE
  5
5
330
0
100
AcDbSymbolTable
 70
    40
  0
LTYPE
  5
14
330
5
100
AcDbSymbolTableRecord
100
AcDbLinetypeTableRecord
  2
BYBLOCK
 70
     0
  3

 72
    65
 73
     0
 40
0.0
  0
LTYPE
  5
15
330
5
100
AcDbSymbolTableRecord
100
AcDbLinetypeTableRecord
  2
BYLAYER
 70
     0
  3

 72
    65
 73
     0
 40
0.0
  0
LTYPE
  5
16
330
5
100
AcDbSymbolTableRecord
100
AcDbLinetypeTableRecord
  2
CONTINUOUS
 70
     0
  3
Solid line
 72
    65
 73
     0
 40
0.0
  0
LTYPE
  5
28
330
5
100
AcDbSymbolTableRecord
100
AcDbLinetypeTableRecord
  2
HIDDEN
 70
     0
  3
_ _ _ _ _ _ _ _ _ _ _ _ _ _ 
 72
    65
 73
     2
 40
0.375
 49
0.25
 74
     0
 49
-0.125
 74
     0
  0
LTYPE
  5
29
330
5
100
AcDbSymbolTableRecord
100
AcDbLinetypeTableRecord
  2
DASHED
 70
     0
  3
__ __ __ __ __ __ __ __ __ 
 72
    65
 73
     2
 40
0.75
 49
0.5
 74
     0
 49
-0.25
 74
     0
  0
LTYPE
  5
2A
330
5
100
AcDbSymbolTableRecord
100
AcDbLinetypeTableRecord
  2
CENTER
 70
     0
  3
____ _ ____ _ ____ _ ____ _ 
 72
    65
 73
     4
 40
2.0
 49
1.25
 74
     0
 49
-0.25
 74
     0
 49
0.25
 74
     0
 49
-0.25
 74
     0
  0
LTYPE
  5
2B
330
5
100
AcDbSymbolTableRecord
100
AcDbLinetypeTableRecord
  2
PHANTOM
 70
     0
  3
_____ _ _ _____ _ _ _____ _ _ 
 72
    65
 73
     6
 40
2.5
 49
1.25
 74
     0
 49
-0.25
 74
     0
 49
0.25
 74
     0
 49
-0.25
 74
     0
 49
0.25
 74
     0
 49
-0.25
 74
     0
  0
LTYPE
  5
2C
330
5
100
AcDbSymbolTableRecord
100
AcDbLinetypeTableRecord
  2
DOT
 70
     0
  3
...........................
 72
    65
 73
     2
 40
0.25
 49
0.0
 74
     0
 49
-0.25
 74
     0
  0
LTYPE
  5
2D
330
5
100
AcDbSymbolTableRecord
100
AcDbLinetypeTableRecord
  2
DASHDOT
 70
     0
  3
__ . __ . __ . __ . __ . __ . 
 72
    65
 73
     4
 40
1.0
 49
0.5
 74
     0
 49
-0.25
 74
     0
 49
0.0
 74
     0
 49
-0.25
 74
     0
  0
LTYPE
  5
2E
330
5
100
AcDbSymbolTableRecord
100
AcDbLinetypeTableRecord
  2
DIVIDE
 70
     0
  3
__ . . __ . . __ . . __ . . 
 72
    65
 73
     6
 40
1.25
 49
0.5
 74
     0
 49
-0.25
 74
     0
 49
0.0
 74
     0
 49
-0.25
 74
     0
 49
0.0
 74
     0
 49
-0.25
 74
     0
  0
LTYPE
  5
2F
330
5
100
AcDbSymbolTableRecord
100
AcDbLinetypeTableRecord
  2
BORDER
 70
     0
  3
__ __ . __ __ . __ __ . __ __ .
 72
    65
 73
     6
 40
1.75
 49
0.5
 74
     0
 49
-0.25
 74
     0
 49
0.5
 74
     0
 49
-0.25
 74
     0
 49
0.0
 74
     0
 49
-0.25
 74
     0
  0
LTYPE
  5
30
330
5
100
AcDbSymbolTableRecord
100
AcDbLinetypeTableRecord
  2
BORDER2
 70
     0
  3
Border (.5x) __.__.__.__.__.__.
 72
    65
 73
     6
 40
0.875
 49
0.25
 74
     0
 49
-0.125
 74
     0
 49
0.25
 74
     0
 49
-0.125
 74
     0
 49
0.0
 74
     0
 49
-0.125
 74
     0
  0
LTYPE
  5
31
330
5
100
AcDbSymbolTableRecord
100
AcDbLinetypeTableRecord
  2
BORDERX2
 70
     0
  3
Border (2x) ____  ____  .  ____
 72
    65
 73
     6
 40
3.5
 49
1.0
 74
     0
 49
-0.5
 74
     0
 49
1.0
 74
     0
 49
-0.5
 74
     0
 49
0.0
 74
     0
 49
-0.5
 74
     0
  0
LTYPE
  5
32
330
5
100
AcDbSymbolTableRecord
100
AcDbLinetypeTableRecord
  2
CENTER2
 70
     0
  3
Center (.5x) ___ _ ___ _ ___ _ 
 72
    65
 73
     4
 40
1.125
 49
0.7500000000000001
 74
     0
 49
-0.125
 74
     0
 49
0.125
 74
     0
 49
-0.125
 74
     0
  0
LTYPE
  5
33
330
5
100
AcDbSymbolTableRecord
100
AcDbLinetypeTableRecord
  2
CENTERX2
 70
     0
  3
Center (2x) ________  __  _____
 72
    65
 73
     4
 40
4.0
 49
2.5
 74
     0
 49
-0.5
 74
     0
 49
0.5
 74
     0
 49
-0.5
 74
     0
  0
LTYPE
  5
34
330
5
100
AcDbSymbolTableRecord
100
AcDbLinetypeTableRecord
  2
DASHDOT2
 70
     0
  3
Dash dot (.5x) _._._._._._._._.
 72
    65
 73
     4
 40
0.5
 49
0.25
 74
     0
 49
-0.125
 74
     0
 49
0.0
 74
     0
 49
-0.125
 74
     0
  0
LTYPE
  5
35
330
5
100
AcDbSymbolTableRecord
100
AcDbLinetypeTableRecord
  2
DASHDOTX2
 70
     0
  3
Dash dot (2x) ____  .  ____  . 
 72
    65
 73
     4
 40
2.0
 49
1.0
 74
     0
 49
-0.5
 74
     0
 49
0.0
 74
     0
 49
-0.5
 74
     0
  0
LTYPE
  5
36
330
5
100
AcDbSymbolTableRecord
100
AcDbLinetypeTableRecord
  2
DASHED2
 70
     0
  3
Dashed (.5x) _ _ _ _ _ _ _ _ _ 
 72
    65
 73
     2
 40
0.375
 49
0.25
 74
     0
 49
-0.125
 74
     0
  0
LTYPE
  5
37
330
5
100
AcDbSymbolTableRecord
100
AcDbLinetypeTableRecord
  2
DASHEDX2
 70
     0
  3
Dashed (2x) ____  ____  ____  _
 72
    65
 73
     2
 40
1.5
 49
1.0
 74
     0
 49
-0.5
 74
     0
  0
LTYPE
  5
38
330
5
100
AcDbSymbolTableRecord
100
AcDbLinetypeTableRecord
  2
DIVIDE2
 70
     0
  3
Divide (.5x) __..__..__..__..__
 72
    65
 73
     6
 40
0.625
 49
0.25
 74
     0
 49
-0.125
 74
     0
 49
0.0
 74
     0
 49
-0.125
 74
     0
 49
0.0
 74
     0
 49
-0.125
 74
     0
  0
LTYPE
  5
39
330
5
100
AcDbSymbolTableRecord
100
AcDbLinetypeTableRecord
  2
DIVIDEX2
 70
     0
  3
Divide (2x) ________  .  .  ___
 72
    65
 73
     6
 40
2.5
 49
1.0
 74
     0
 49
-0.5
 74
     0
 49
0.0
 74
     0
 49
-0.5
 74
     0
 49
0.0
 74
     0
 49
-0.5
 74
     0
  0
LTYPE
  5
3A
330
5
100
AcDbSymbolTableRecord
100
AcDbLinetypeTableRecord
  2
DOT2
 70
     0
  3
Dot (.5x) .....................
 72
    65
 73
     2
 40
0.125
 49
0.0
 74
     0
 49
-0.125
 74
     0
  0
LTYPE
  5
3B
330
5
100
AcDbSymbolTableRecord
100
AcDbLinetypeTableRecord
  2
DOTX2
 70
     0
  3
Dot (2x) .  .  .  .  .  .  .  .
 72
    65
 73
     2
 40
0.5
 49
0.0
 74
     0
 49
-0.5
 74
     0
  0
LTYPE
  5
3C
330
5
100
AcDbSymbolTableRecord
100
AcDbLinetypeTableRecord
  2
HIDDEN2
 70
     0
  3
Hidden (.5x) _ _ _ _ _ _ _ _ _ 
 72
    65
 73
     2
 40
0.1875
 49
0.125
 74
     0
 49
-0.0625
 74
     0
  0
LTYPE
  5
3D
330
5
100
AcDbSymbolTableRecord
100
AcDbLinetypeTableRecord
  2
HIDDENX2
 70
     0
  3
Hidden (2x) ____ ____ ____ ____
 72
    65
 73
     2
 40
0.75
 49
0.5
 74
     0
 49
-0.25
 74
     0
  0
LTYPE
  5
3E
330
5
100
AcDbSymbolTableRecord
100
AcDbLinetypeTableRecord
  2
PHANTOM2
 70
     0
  3
Phantom (.5x) ___ _ _ ___ _ _ _
 72
    65
 73
     6
 40
1.25
 49
0.6250000000000001
 74
     0
 49
-0.125
 74
     0
 49
0.125
 74
     0
 49
-0.125
 74
     0
 49
0.125
 74
     0
 49
-0.125
 74
     0
  0
LTYPE
  5
3F
330
5
100
AcDbSymbolTableRecord
100
AcDbLinetypeTableRecord
  2
PHANTOMX2
 70
     0
  3
Phantom (2x) ____________    __
 72
    65
 73
     6
 40
5.0
 49
2.5
 74
     0
 49
-0.5
 74
     0
 49
0.5
 74
     0
 49
-0.5
 74
     0
 49
0.5
 74
     0
 49
-0.5
 74
     0
  0
LTYPE
  5
40
330
5
100
AcDbSymbolTableRecord
100
AcDbLinetypeTableRecord
  2
DOTS
 70
     0
  3
Dots - - - - - - - - - - - - - 
 72
    65
 73
     2
 40
0.1
 49
0.05
 74
     0
 49
-0.05
 74
     0
  0
LTYPE
  5
41
330
5
100
AcDbSymbolTableRecord
100
AcDbLinetypeTableRecord
  2
ACAD_ISO02W100
 70
     0
  3
__ __ __ __ __ __ __ __ __ __ _
 72
    65
 73
     2
 40
15.0
 49
12.0
 74
     0
 49
-3.0
 74
     0
  0
LTYPE
  5
42
330
5
100
AcDbSymbolTableRecord
100
AcDbLinetypeTableRecord
  2
ACAD_ISO03W100
 70
     0
  3
__    __    __    __    __    _
 72
    65
 73
     2
 40
30.0
 49
12.0
 74
     0
 49
-18.0
 74
     0
  0
LTYPE
  5
43
330
5
100
AcDbSymbolTableRecord
100
AcDbLinetypeTableRecord
  2
ACAD_ISO04W100
 70
     0
  3
____ . ____ . ____ . ____ . ___
 72
    65
 73
     4
 40
30.5
 49
24.0
 74
     0
 49
-3.0
 74
     0
 49
0.5
 74
     0
 49
-3.0
 74
     0
  0
LTYPE
  5
44
330
5
100
AcDbSymbolTableRecord
100
AcDbLinetypeTableRecord
  2
ACAD_ISO05W100
 70
     0
  3
____ .. ____ .. ____ .. ____ ..
 72
    65
 73
     6
 40
34.0
 49
24.0
 74
     0
 49
-3.0
 74
     0
 49
0.5
 74
     0
 49
-3.0
 74
     0
 49
0.5
 74
     0
 49
-3.0
 74
     0
  0
LTYPE
  5
45
330
5
100
AcDbSymbolTableRecord
100
AcDbLinetypeTableRecord
  2
ACAD_ISO06W100
 70
     0
  3
____ ... ____ ... ____ ... ____
 72
    65
 73
     6
 40
34.0
 49
24.0
 74
     0
 49
-3.0
 74
     0
 49
0.5
 74
     0
 49
-3.0
 74
     0
 49
0.5
 74
     0
 49
-3.0
 74
     0
  0
LTYPE
  5
46
330
5
100
AcDbSymbolTableRecord
100
AcDbLinetypeTableRecord
  2
ACAD_ISO07W100
 70
     0
  3
. . . . . . . . . . . . . . . .
 72
    65
 73
     2
 40
3.5
 49
0.5
 74
     0
 49
-3.0
 74
     0
  0
LTYPE
  5
47
330
5
100
AcDbSymbolTableRecord
100
AcDbLinetypeTableRecord
  2
ACAD_ISO08W100
 70
     0
  3
____ __ ____ __ ____ __ ____ __
 72
    65
 73
     4
 40
36.0
 49
24.0
 74
     0
 49
-3.0
 74
     0
 49
6.0
 74
     0
 49
-3.0
 74
     0
  0
LTYPE
  5
48
330
5
100
AcDbSymbolTableRecord
100
AcDbLinetypeTableRecord
  2
ACAD_ISO09W100
 70
     0
  3
____ __ __ ____ __ __ ____ __ _
 72
    65
 73
     6
 40
45.0
 49
24.0
 74
     0
 49
-3.0
 74
     0
 49
6.0
 74
     0
 49
-3.0
 74
     0
 49
6.0
 74
     0
 49
-3.0
 74
     0
  0
LTYPE
  5
49
330
5
100
AcDbSymbolTableRecord
100
AcDbLinetypeTableRecord
  2
ACAD_ISO10W100
 70
     0
  3
__ . __ . __ . __ . __ . __ . _
 72
    65
 73
     4
 40
18.5
 49
12.0
 74
     0
 49
-3.0
 74
     0
 49
0.5
 74
     0
 49
-3.0
 74
     0
  0
LTYPE
  5
4A
330
5
100
AcDbSymbolTableRecord
100
AcDbLinetypeTableRecord
  2
ACAD_ISO11W100
 70
     0
  3
__ __ . __ __ . __ __ . __ __ .
 72
    65
 73
     6
 40
33.5
 49
12.0
 74
     0
 49
-3.0
 74
     0
 49
12.0
 74
     0
 49
-3.0
 74
     0
 49
0.5
 74
     0
 49
-3.0
 74
     0
  0
LTYPE
  5
4B
330
5
100
AcDbSymbolTableRecord
100
AcDbLinetypeTableRecord
  2
ACAD_ISO12W100
 70
     0
  3
__ . . __ . . __ . . __ . . __ 
 72
    65
 73
     6
 40
22.0
 49
12.0
 74
     0
 49
-3.0
 74
     0
 49
0.5
 74
     0
 49
-3.0
 74
     0
 49
0.5
 74
     0
 49
-3.0
 74
     0
  0
LTYPE
  5
4C
330
5
100
AcDbSymbolTableRecord
100
AcDbLinetypeTableRecord
  2
ACAD_ISO13W100
 70
     0
  3
__ __ . . __ __ . . __ __ . . _
 72
    65
 73
     6
 40
33.5
 49
12.0
 74
     0
 49
-3.0
 74
     0
 49
12.0
 74
     0
 49
-3.0
 74
     0
 49
0.5
 74
     0
 49
-3.0
 74
     0
  0
LTYPE
  5
4D
330
5
100
AcDbSymbolTableRecord
100
AcDbLinetypeTableRecord
  2
ACAD_ISO14W100
 70
     0
  3
__ . . . __ . . . __ . . . __ .
 72
    65
 73
     6
 40
22.0
 49
12.0
 74
     0
 49
-3.0
 74
     0
 49
0.5
 74
     0
 49
-3.0
 74
     0
 49
0.5
 74
     0
 49
-3.0
 74
     0
  0
LTYPE
  5
4E
330
5
100
AcDbSymbolTableRecord
100
AcDbLinetypeTableRecord
  2
ACAD_ISO15W100
 70
     0
  3
__ __ . . . __ __ . . . __ __ .
 72
    65
 73
     6
 40
33.5
 49
12.0
 74
     0
 49
-3.0
 74
     0
 49
12.0
 74
     0
 49
-3.0
 74
     0
 49
0.5
 74
     0
 49
-3.0
 74
     0
  0
ENDTAB
  0
TABLE
  2
LAYER
  5
2
330
0
100
AcDbSymbolTable
 70
     4
  0
LAYER
  5
10
330
2
100
AcDbSymbolTableRecord
100
AcDbLayerTableRecord
  2
0
 70
     0
 62
     7
  6
CONTINUOUS
  0
LAYER
  5
4F
330
2
100
AcDbSymbolTableRecord
100
AcDbLayerTableRecord
  2
COMMON
 70
     0
 62
     7
  6
CONTINUOUS
  0
LAYER
  5
50
330
2
100
AcDbSymbolTableRecord
100
AcDbLayerTableRecord
  2
GIB
 70
     0
 62
     7
  6
CONTINUOUS
  0
LAYER
  5
51
330
2
100
AcDbSymbolTableRecord
100
AcDbLayerTableRecord
  2
GIBDIMS
 70
     1
 62
     7
  6
CONTINUOUS
  0
ENDTAB
  0
TABLE
  2
STYLE
  5
3
330
0
100
AcDbSymbolTable
 70
     5
  0
STYLE
  5
11
330
3
100
AcDbSymbolTableRecord
100
AcDbTextStyleTableRecord
  2
STANDARD
 70
     0
 40
0.0
 41
1.0
 50
0.0
 71
     0
 42
0.15
  3
txt
  4

  0
STYLE
  5
52
330
3
100
AcDbSymbolTableRecord
100
AcDbTextStyleTableRecord
  2
ITALIC
 70
     0
 40
0.0
 41
1.0
 50
0.0
 71
     0
 42
0.15
  3
ITALIC
  4

  0
STYLE
  5
53
330
3
100
AcDbSymbolTableRecord
100
AcDbTextStyleTableRecord
  2
SIMPLEX
 70
     0
 40
0.0
 41
1.0
 50
0.0
 71
     0
 42
0.15
  3
SIMPLEX
  4

  0
STYLE
  5
54
330
3
100
AcDbSymbolTableRecord
100
AcDbTextStyleTableRecord
  2
COMPLEX
 70
     0
 40
0.0
 41
1.0
 50
0.0
 71
     0
 42
0.15
  3
COMPLEX
  4

  0
STYLE
  5
66
330
3
100
AcDbSymbolTableRecord
100
AcDbTextStyleTableRecord
  2
ARIAL
 70
     0
 40
0.0
 41
1.0
 50
0.0
 71
     0
 42
0.15
  3
ARIAL.TTF
  4

1001
ACAD
1000
Arial
1071
        0
  0
ENDTAB
  0
TABLE
  2
VIEW
  5
6
330
0
100
AcDbSymbolTable
 70
     0
  0
ENDTAB
  0
TABLE
  2
UCS
  5
7
330
0
100
AcDbSymbolTable
 70
     0
  0
ENDTAB
  0
TABLE
  2
APPID
  5
9
330
0
100
AcDbSymbolTable
 70
     1
  0
APPID
  5
12
330
9
100
AcDbSymbolTableRecord
100
AcDbRegAppTableRecord
  2
ACAD
 70
     0
  0
ENDTAB
  0
TABLE
  2
DIMSTYLE
  5
A
330
0
100
AcDbSymbolTable
 70
     1
  0
DIMSTYLE
105
27
330
A
100
AcDbSymbolTableRecord
100
AcDbDimStyleTableRecord
  2
STANDARD
 70
     0
  3

  4

  5

  6

  7

 40
1.0
 41
0.18
 42
0.0625
 43
0.38
 44
0.18
 45
0.0
 46
0.0
 47
0.0
 48
0.0
140
0.18
141
0.09
142
0.0
143
25.4
144
1.0
145
0.0
146
1.0
147
0.09
 71
     0
 72
     0
 73
     1
 74
     1
 75
     0
 76
     0
 77
     0
 78
     0
170
     0
171
     2
172
     0
173
     0
174
     0
175
     0
176
     0
177
     0
178
     0
270
     2
271
     4
272
     4
273
     2
274
     2
340
11
275
     0
280
     0
281
     0
282
     0
283
     1
284
     0
285
     0
286
     0
287
     3
288
     0
  0
ENDTAB
  0
TABLE
  2
BLOCK_RECORD
  5
1
330
0
100
AcDbSymbolTable
 70
     1
  0
BLOCK_RECORD
  5
1F
102
{ACAD_XDICTIONARY
360
C8
102
}
330
1
100
AcDbSymbolTableRecord
100
AcDbBlockTableRecord
  2
*MODEL_SPACE
  0
BLOCK_RECORD
  5
1B
102
{ACAD_XDICTIONARY
360
C6
102
}
330
1
100
AcDbSymbolTableRecord
100
AcDbBlockTableRecord
  2
*PAPER_SPACE
  0
ENDTAB
  0
ENDSEC
  0
SECTION
  2
BLOCKS
  0
BLOCK
  5
20
330
1F
100
AcDbEntity
  8
0
100
AcDbBlockBegin
  2
*MODEL_SPACE
 70
     0
 10
0.0
 20
0.0
 30
0.0
  3
*MODEL_SPACE
  1

  0
ENDBLK
  5
21
330
1F
100
AcDbEntity
  8
0
100
AcDbBlockEnd
  0
BLOCK
  5
1C
330
1B
100
AcDbEntity
 67
     1
  8
0
100
AcDbBlockBegin
  2
*PAPER_SPACE
 70
     0
 10
0.0
 20
0.0
 30
0.0
  3
*PAPER_SPACE
  1

  0
ENDBLK
  5
1D
330
1B
100
AcDbEntity
 67
     1
  8
0
100
AcDbBlockEnd
  0
ENDSEC
  0
SECTION
  2
ENTITIES
  0
LWPOLYLINE
  5
55
330
1F
100
AcDbEntity
  8
COMMON
  6
CONTINUOUS
 62
     7
100
AcDbPolyline
 90
        2
 70
     0
 43
0.0
 10
8.21
 20
0.9000000000000001
 10
10.71
 20
0.9
  0
LWPOLYLINE
  5
56
330
1F
100
AcDbEntity
  8
COMMON
  6
CONTINUOUS
 62
     7
100
AcDbPolyline
 90
        2
 70
     0
 43
0.0
 10
10.7
 20
0.6000056007878572
 10
8.199999999999999
 20
0.6000056007878572
  0
LWPOLYLINE
  5
57
330
1F
100
AcDbEntity
  8
COMMON
  6
CONTINUOUS
 62
     7
100
AcDbPolyline
 90
        2
 70
     0
 43
0.0
 10
9.450000000000001
 20
0.6000056007878572
 10
9.449999999999999
 20
0.3
  0
LINE
  5
58
330
1F
100
AcDbEntity
  8
COMMON
  6
CONTINUOUS
 62
     7
100
AcDbLine
 10
10.7
 20
1.200021053122508
 30
0.0
 11
8.200000000000001
 21
1.199978946877491
 31
0.0
  0
LINE
  5
59
330
1F
100
AcDbEntity
  8
COMMON
  6
CONTINUOUS
 62
     7
100
AcDbLine
 10
8.200000000000001
 20
1.199978946877491
 30
0.0
 11
8.200000000000001
 21
0.3
 31
0.0
  0
LINE
  5
5A
330
1F
100
AcDbEntity
  8
COMMON
  6
CONTINUOUS
 62
     7
100
AcDbLine
 10
0.2999999999999998
 20
8.21
 30
0.0
 11
0.2999999999999998
 21
0.2999999999999998
 31
0.0
  0
LINE
  5
5B
330
1F
100
AcDbEntity
  8
COMMON
  6
CONTINUOUS
 62
     7
100
AcDbLine
 10
0.2999999999999998
 20
0.2999999999999998
 30
0.0
 11
10.7
 21
0.2999999999999998
 31
0.0
  0
LINE
  5
5C
330
1F
100
AcDbEntity
  8
COMMON
  6
CONTINUOUS
 62
     7
100
AcDbLine
 10
10.7
 20
0.2999999999999998
 30
0.0
 11
10.7
 21
8.21
 31
0.0
  0
LINE
  5
5D
330
1F
100
AcDbEntity
  8
COMMON
  6
CONTINUOUS
 62
     7
100
AcDbLine
 10
10.7
 20
8.21
 30
0.0
 11
0.3000000000000007
 21
8.21
 31
0.0
  0
LINE
  5
5E
330
1F
100
AcDbEntity
  8
GIB
  6
CONTINUOUS
 62
     5
100
AcDbLine
 10
1.0
 20
4.723845923477639
 30
0.0
 11
10.2548
 21
4.723845923477639
 31
0.0
  0
LINE
  5
5F
330
1F
100
AcDbEntity
  8
GIB
  6
CONTINUOUS
 62
     5
100
AcDbLine
 10
10.2548
 20
4.723845923477639
 30
0.0
 11
10.2548
 21
5.572000000000001
 31
0.0
  0
LINE
  5
60
330
1F
100
AcDbEntity
  8
GIB
  6
CONTINUOUS
 62
     5
100
AcDbLine
 10
10.2548
 20
5.572000000000001
 30
0.0
 11
1.0
 21
5.572000000000001
 31
0.0
  0
LINE
  5
61
330
1F
100
AcDbEntity
  8
GIB
  6
CONTINUOUS
 62
     5
100
AcDbLine
 10
1.0
 20
5.572000000000001
 30
0.0
 11
1.0
 21
4.723845923477639
 31
0.0
  0
LINE
  5
62
330
1F
100
AcDbEntity
  8
GIB
  6
CONTINUOUS
 62
     5
100
AcDbLine
 10
1.0
 20
1.9752
 30
0.0
 11
10.2726
 21
1.9752
 31
0.0
  0
LINE
  5
63
330
1F
100
AcDbEntity
  8
GIB
  6
CONTINUOUS
 62
     5
100
AcDbLine
 10
10.2726
 20
1.9752
 30
0.0
 11
10.2726
 21
4.004199999999999
 31
0.0
  0
LINE
  5
64
330
1F
100
AcDbEntity
  8
GIB
  6
CONTINUOUS
 62
     5
100
AcDbLine
 10
10.2726
 20
4.004199999999999
 30
0.0
 11
1.0
 21
4.004199999999999
 31
0.0
  0
LINE
  5
65
330
1F
100
AcDbEntity
  8
GIB
  6
CONTINUOUS
 62
     5
100
AcDbLine
 10
1.0
 20
4.004199999999999
 30
0.0
 11
1.0
 21
1.9752
 31
0.0
  0
TEXT
  5
67
330
1F
100
AcDbEntity
  8
COMMON
  6
CENTER
 62
     7
100
AcDbText
 10
8.306000000000002
 20
0.9830000000000001
 30
0.0
 40
0.15
  1
Saddle Gib Plates
  7
ARIAL
100
AcDbText
  0
TEXT
  5
68
330
1F
100
AcDbEntity
  8
COMMON
  6
CENTER
 62
     7
100
AcDbText
 10
8.324000000000001
 20
0.392
 30
0.0
 40
0.15
  1
3/30/2000
  7
ARIAL
100
AcDbText
  0
TEXT
  5
69
330
1F
100
AcDbEntity
  8
COMMON
  6
CENTER
 62
     7
100
AcDbText
 10
9.523000000000001
 20
0.392
 30
0.0
 40
0.15
  1
Rick Kruger
  7
ARIAL
100
AcDbText
  0
LWPOLYLINE
  5
6A
330
1F
100
AcDbEntity
  8
GIB
  6
HIDDEN
 62
     5
100
AcDbPolyline
 90
        2
 70
     0
 43
0.0
 10
1.593282510979565
 20
5.572000000000001
 10
1.593282510979565
 20
4.723845923477635
  0
LINE
  5
6B
330
1F
100
AcDbEntity
  8
GIB
  6
HIDDEN
 62
     5
100
AcDbLine
 10
2.224481230769231
 20
5.571999999999994
 30
0.0
 11
2.224481230769231
 21
4.723845923477631
 31
0.0
  0
LINE
  5
6C
330
1F
100
AcDbEntity
  8
GIB
  6
HIDDEN
 62
     5
100
AcDbLine
 10
5.237037282051283
 20
5.571999999999994
 30
0.0
 11
5.237037282051283
 21
4.723845923477631
 31
0.0
  0
LINE
  5
6D
330
1F
100
AcDbEntity
  8
GIB
  6
HIDDEN
 62
     5
100
AcDbLine
 10
6.007084102564103
 20
5.571999999999994
 30
0.0
 11
6.007084102564103
 21
4.723845923477631
 31
0.0
  0
LINE
  5
6E
330
1F
100
AcDbEntity
  8
GIB
  6
HIDDEN
 62
     5
100
AcDbLine
 10
9.746972512820514
 20
5.571999999999994
 30
0.0
 11
9.746972512820514
 21
4.723845923477631
 31
0.0
  0
LINE
  5
6F
330
1F
100
AcDbEntity
  8
GIB
  6
HIDDEN
 62
     5
100
AcDbLine
 10
8.975739179487181
 20
5.571999999999994
 30
0.0
 11
8.975739179487181
 21
4.723845923477631
 31
0.0
  0
LWPOLYLINE
  5
70
330
1F
100
AcDbEntity
  8
GIB
  6
CONTINUOUS
 62
     5
100
AcDbPolyline
 90
        2
 70
     0
 43
0.0
 10
1.0
 20
3.822470283725685
 10
10.2726
 20
3.822470283725685
  0
CIRCLE
  5
71
330
1F
100
AcDbEntity
  8
GIB
  6
CONTINUOUS
 62
     5
100
AcDbCircle
 10
1.910616871794871
 20
3.300506133824414
 30
0.0
 40
0.3491500461589837
  0
CIRCLE
  5
72
330
1F
100
AcDbEntity
  8
GIB
  6
CONTINUOUS
 62
     5
100
AcDbCircle
 10
5.631544820512822
 20
3.300506133824414
 30
0.0
 40
0.3491500461589837
  0
CIRCLE
  5
73
330
1F
100
AcDbEntity
  8
GIB
  6
CONTINUOUS
 62
     5
100
AcDbCircle
 10
9.376248666666665
 20
3.300506133824414
 30
0.0
 40
0.3491500461589837
  0
LINE
  5
74
330
1F
100
AcDbEntity
  8
GIB
  6
CONTINUOUS
 62
     5
100
AcDbLine
 10
1.0
 20
2.641871428571427
 30
0.0
 11
10.2726
 21
2.641871428571427
 31
0.0
  0
CIRCLE
  5
75
330
1F
100
AcDbEntity
  8
GIB
  6
HIDDEN
 62
     5
100
AcDbCircle
 10
4.185970256410255
 20
2.931660007044127
 30
0.0
 40
0.2624567340667934
  0
CIRCLE
  5
76
330
1F
100
AcDbEntity
  8
GIB
  6
HIDDEN
 62
     5
100
AcDbCircle
 10
7.371940512820513
 20
2.931352788592155
 30
0.0
 40
0.2625188316984839
  0
CIRCLE
  5
77
330
1F
100
AcDbEntity
  8
GIB
  6
CONTINUOUS
 62
     5
100
AcDbCircle
 10
4.185970256410255
 20
2.931660007044127
 30
0.0
 40
0.2100150653587872
  0
CIRCLE
  5
78
330
1F
100
AcDbEntity
  8
GIB
  6
CONTINUOUS
 62
     5
100
AcDbCircle
 10
7.371940512820513
 20
2.931352788592155
 30
0.0
 40
0.2100150653587872
  0
LINE
  5
79
330
1F
100
AcDbEntity
  8
GIB
  6
HIDDEN
 62
     5
100
AcDbLine
 10
7.552679516863365
 20
4.723845923477639
 30
0.0
 11
7.554296940810392
 21
5.570950689409559
 31
0.0
  0
LINE
  5
7A
330
1F
100
AcDbEntity
  8
GIB
  6
HIDDEN
 62
     5
100
AcDbLine
 10
7.224446380102468
 20
5.48613494557374
 30
0.0
 11
7.49497106463518
 21
5.48613494557374
 31
0.0
  0
LINE
  5
7B
330
1F
100
AcDbEntity
  8
GIB
  6
HIDDEN
 62
     5
100
AcDbLine
 10
7.165120495087048
 20
5.570950689409559
 30
0.0
 11
7.165120495087048
 21
4.722800000000002
 31
0.0
  0
LINE
  5
7C
330
1F
100
AcDbEntity
  8
GIB
  6
HIDDEN
 62
     5
100
AcDbLine
 10
7.224446380102468
 20
4.807615427873805
 30
0.0
 11
7.49497106463518
 21
4.807615427873805
 31
0.0
  0
LINE
  5
7D
330
1F
100
AcDbEntity
  8
GIB
  6
HIDDEN
 62
     5
100
AcDbLine
 10
7.224446380102468
 20
5.316505138820018
 30
0.0
 11
7.49497106463518
 21
5.316505138820018
 31
0.0
  0
LINE
  5
7E
330
1F
100
AcDbEntity
  8
GIB
  6
HIDDEN
 62
     5
100
AcDbLine
 10
7.165120495087048
 20
5.401320895294321
 30
0.0
 11
7.554296940810392
 21
5.401320895294321
 31
0.0
  0
LINE
  5
7F
330
1F
100
AcDbEntity
  8
GIB
  6
HIDDEN
 62
     5
100
AcDbLine
 10
7.224446380102468
 20
5.146873651148378
 30
0.0
 11
7.49497106463518
 21
5.146873651148378
 31
0.0
  0
LINE
  5
80
330
1F
100
AcDbEntity
  8
GIB
  6
HIDDEN
 62
     5
100
AcDbLine
 10
7.165120495087048
 20
5.231691101179079
 30
0.0
 11
7.554296940810392
 21
5.231691101179079
 31
0.0
  0
LINE
  5
81
330
1F
100
AcDbEntity
  8
GIB
  6
HIDDEN
 62
     5
100
AcDbLine
 10
7.165120495087048
 20
5.062061660941298
 30
0.0
 11
7.554296940810392
 21
5.062061660941298
 31
0.0
  0
LINE
  5
82
330
1F
100
AcDbEntity
  8
GIB
  6
HIDDEN
 62
     5
100
AcDbLine
 10
7.224446380102468
 20
4.977246233067496
 30
0.0
 11
7.49497106463518
 21
4.977246233067496
 31
0.0
  0
LINE
  5
83
330
1F
100
AcDbEntity
  8
GIB
  6
HIDDEN
 62
     5
100
AcDbLine
 10
7.165120495087048
 20
4.892430805193689
 30
0.0
 11
7.554296940810392
 21
4.892430805193689
 31
0.0
  0
LINE
  5
85
102
{ACAD_REACTORS
330
84
102
}
330
1F
100
AcDbEntity
  8
GIB
  6
HIDDEN
 62
     5
100
AcDbLine
 10
3.985266136112689
 20
5.571069363361806
 30
0.0
 11
3.985266136112689
 21
4.722918673952249
 31
0.0
  0
LINE
  5
86
102
{ACAD_REACTORS
330
84
102
}
330
1F
100
AcDbEntity
  8
GIB
  6
HIDDEN
 62
     5
100
AcDbLine
 10
4.315116696820613
 20
4.807734417788068
 30
0.0
 11
4.0445920122879
 21
4.807734417788068
 31
0.0
  0
LINE
  5
87
102
{ACAD_REACTORS
330
84
102
}
330
1F
100
AcDbEntity
  8
GIB
  6
HIDDEN
 62
     5
100
AcDbLine
 10
4.374442581836033
 20
4.722918673952249
 30
0.0
 11
4.374442581836033
 21
5.571069363361806
 31
0.0
  0
LINE
  5
88
102
{ACAD_REACTORS
330
84
102
}
330
1F
100
AcDbEntity
  8
GIB
  6
HIDDEN
 62
     5
100
AcDbLine
 10
4.315116696820613
 20
5.486253935488
 30
0.0
 11
4.0445920122879
 21
5.486253935488
 31
0.0
  0
LINE
  5
89
102
{ACAD_REACTORS
330
84
102
}
330
1F
100
AcDbEntity
  8
GIB
  6
HIDDEN
 62
     5
100
AcDbLine
 10
4.315116696820613
 20
4.97736422454179
 30
0.0
 11
4.0445920122879
 21
4.97736422454179
 31
0.0
  0
LINE
  5
8A
102
{ACAD_REACTORS
330
84
102
}
330
1F
100
AcDbEntity
  8
GIB
  6
HIDDEN
 62
     5
100
AcDbLine
 10
4.374442581836033
 20
4.892548468067487
 30
0.0
 11
3.985266136112689
 21
4.892548468067487
 31
0.0
  0
LINE
  5
8B
102
{ACAD_REACTORS
330
84
102
}
330
1F
100
AcDbEntity
  8
GIB
  6
HIDDEN
 62
     5
100
AcDbLine
 10
4.315116696820613
 20
5.14699571221343
 30
0.0
 11
4.0445920122879
 21
5.14699571221343
 31
0.0
  0
LINE
  5
8C
102
{ACAD_REACTORS
330
84
102
}
330
1F
100
AcDbEntity
  8
GIB
  6
HIDDEN
 62
     5
100
AcDbLine
 10
4.374442581836033
 20
5.062178262182725
 30
0.0
 11
3.985266136112689
 21
5.062178262182725
 31
0.0
  0
LINE
  5
8D
102
{ACAD_REACTORS
330
84
102
}
330
1F
100
AcDbEntity
  8
GIB
  6
HIDDEN
 62
     5
100
AcDbLine
 10
4.374442581836033
 20
5.23180770242051
 30
0.0
 11
3.985266136112689
 21
5.23180770242051
 31
0.0
  0
LINE
  5
8E
102
{ACAD_REACTORS
330
84
102
}
330
1F
100
AcDbEntity
  8
GIB
  6
HIDDEN
 62
     5
100
AcDbLine
 10
4.315116696820613
 20
5.316623130294312
 30
0.0
 11
4.0445920122879
 21
5.316623130294312
 31
0.0
  0
LINE
  5
8F
102
{ACAD_REACTORS
330
84
102
}
330
1F
100
AcDbEntity
  8
GIB
  6
HIDDEN
 62
     5
100
AcDbLine
 10
4.374442581836033
 20
5.401438558168119
 30
0.0
 11
3.985266136112689
 21
5.401438558168119
 31
0.0
  0
TEXT
  5
90
330
1F
100
AcDbEntity
  8
COMMON
  6
CONTINUOUS
 62
     7
100
AcDbText
 10
8.352361650818551
 20
0.6765688363885893
 30
0.0
 40
0.15
  1
Brass
  7
ARIAL
100
AcDbText
  0
LINE
  5
91
330
1F
100
AcDbEntity
  8
GIB
  6
CONTINUOUS
 62
     5
100
AcDbLine
 10
6.968186999999893
 20
7.458220211826795
 30
0.0
 11
8.845794285714283
 21
7.359068504377532
 31
0.0
  0
LINE
  5
92
330
1F
100
AcDbEntity
  8
GIB
  6
CONTINUOUS
 62
     5
100
AcDbLine
 10
8.845794285714283
 20
7.359068504377532
 30
0.0
 11
8.845794285714283
 21
7.458220211826788
 31
0.0
  0
LINE
  5
93
330
1F
100
AcDbEntity
  8
GIB
  6
CONTINUOUS
 62
     5
100
AcDbLine
 10
6.677550000000003
 20
6.626500000000022
 30
0.0
 11
9.906850000000002
 21
6.626500000000022
 31
0.0
  0
LINE
  5
94
330
1F
100
AcDbEntity
  8
GIB
  6
CONTINUOUS
 62
     5
100
AcDbLine
 10
9.906850000000002
 20
6.626500000000022
 30
0.0
 11
9.906850000000002
 21
7.458220211826795
 31
0.0
  0
LINE
  5
95
330
1F
100
AcDbEntity
  8
GIB
  6
CONTINUOUS
 62
     5
100
AcDbLine
 10
9.906850000000002
 20
7.458220211826795
 30
0.0
 11
8.845794285714283
 21
7.458220211826795
 31
0.0
  0
LINE
  5
96
330
1F
100
AcDbEntity
  8
GIB
  6
CONTINUOUS
 62
     5
100
AcDbLine
 10
6.677550000000003
 20
7.458220211826795
 30
0.0
 11
6.677550000000003
 21
6.626500000000022
 31
0.0
  0
LINE
  5
97
330
1F
100
AcDbEntity
  8
GIB
  6
CONTINUOUS
 62
     5
100
AcDbLine
 10
6.968186999999893
 20
7.458220211826795
 30
0.0
 11
6.677550000000003
 21
7.458220211826795
 31
0.0
  0
LINE
  5
98
330
1F
100
AcDbEntity
  8
GIB
  6
HIDDEN
 62
     5
100
AcDbLine
 10
8.412145428571427
 20
6.626500000000017
 30
0.0
 11
8.412145428571427
 21
7.381968407326499
 31
0.0
  0
LINE
  5
99
330
1F
100
AcDbEntity
  8
GIB
  6
HIDDEN
 62
     5
100
AcDbLine
 10
7.185011428571423
 20
7.446576128861213
 30
0.0
 11
7.185011428571423
 21
6.626500000000017
 31
0.0
  0
LINE
  5
9A
330
1F
100
AcDbEntity
  8
GIB
  6
HIDDEN
 62
     5
100
AcDbLine
 10
8.701056028731155
 20
6.626500000000017
 30
0.0
 11
8.701056028731155
 21
7.366711766854352
 31
0.0
  0
LINE
  5
9B
330
1F
100
AcDbEntity
  8
GIB
  6
HIDDEN
 62
     5
100
AcDbLine
 10
7.918556541047518
 20
7.383427497884542
 30
0.0
 11
8.314787920792287
 21
7.383427497884542
 31
0.0
  0
LINE
  5
9C
330
1F
100
AcDbEntity
  8
GIB
  6
HIDDEN
 62
     5
100
AcDbLine
 10
7.77781864285715
 20
7.415465605789088
 30
0.0
 11
7.77781864285715
 21
6.626500000000022
 31
0.0
  0
LINE
  5
9D
330
1F
100
AcDbEntity
  8
GIB
  6
HIDDEN
 62
     5
100
AcDbLine
 10
7.918556541047518
 20
6.718054999406541
 30
0.0
 11
8.560318151512293
 21
6.718054999406541
 31
0.0
  0
LINE
  5
9E
330
1F
100
AcDbEntity
  8
GIB
  6
HIDDEN
 62
     5
100
AcDbLine
 10
7.918556541047518
 20
7.217084444528224
 30
0.0
 11
8.560318151512293
 21
7.217084444528224
 31
0.0
  0
LINE
  5
9F
330
1F
100
AcDbEntity
  8
GIB
  6
HIDDEN
 62
     5
100
AcDbLine
 10
7.77781864285715
 20
7.300256807774178
 30
0.0
 11
8.701056028731155
 21
7.300256807774178
 31
0.0
  0
LINE
  5
A0
330
1F
100
AcDbEntity
  8
GIB
  6
HIDDEN
 62
     5
100
AcDbLine
 10
7.918556541047518
 20
7.050739742823512
 30
0.0
 11
8.560318151512293
 21
7.050739742823512
 31
0.0
  0
LINE
  5
A1
330
1F
100
AcDbEntity
  8
GIB
  6
HIDDEN
 62
     5
100
AcDbLine
 10
7.77781864285715
 20
7.133913766811455
 30
0.0
 11
8.701056028731155
 21
7.133913766811455
 31
0.0
  0
LINE
  5
A2
330
1F
100
AcDbEntity
  8
GIB
  6
HIDDEN
 62
     5
100
AcDbLine
 10
7.77781864285715
 20
6.96757107286945
 30
0.0
 11
8.701056028731155
 21
6.96757107286945
 31
0.0
  0
LINE
  5
A3
330
1F
100
AcDbEntity
  8
GIB
  6
HIDDEN
 62
     5
100
AcDbLine
 10
7.918556541047518
 20
6.884399031857016
 30
0.0
 11
8.560318151512293
 21
6.884399031857016
 31
0.0
  0
LINE
  5
A4
330
1F
100
AcDbEntity
  8
GIB
  6
HIDDEN
 62
     5
100
AcDbLine
 10
7.77781864285715
 20
6.801226990844583
 30
0.0
 11
8.701056028731155
 21
6.801226990844583
 31
0.0
  0
ENDSEC
  0
SECTION
  2
OBJECTS
  0
DICTIONARY
  5
C
330
0
100
AcDbDictionary
  3
ACAD_GROUP
350
D
  3
ACAD_PLOTSTYLENAME
350
E
  3
ACAD_MLINESTYLE
350
17
  3
ACAD_PLOTSETTINGS
350
19
  3
ACAD_LAYOUT
350
1A
  3
ACDBHEADERROUNDTRIPXREC
350
A5
  0
DICTIONARY
  5
C8
330
1F
100
AcDbDictionary
280
     1
  3
ACAD_LAYOUTSELFREF
360
C9
  0
DICTIONARY
  5
C6
330
1B
100
AcDbDictionary
280
     1
  3
ACAD_LAYOUTSELFREF
360
C7
  0
DICTIONARY
  5
D
102
{ACAD_REACTORS
330
C
102
}
330
C
100
AcDbDictionary
  3
*A1
350
84
  0
ACDBDICTIONARYWDFLT
  5
E
102
{ACAD_REACTORS
330
C
102
}
330
C
100
AcDbDictionary
281
     1
  3
Normal
350
F
100
AcDbDictionaryWithDefault
340
F
  0
DICTIONARY
  5
17
102
{ACAD_REACTORS
330
C
102
}
330
C
100
AcDbDictionary
  3
STANDARD
350
18
  0
DICTIONARY
  5
19
102
{ACAD_REACTORS
330
C
102
}
330
C
100
AcDbDictionary
  0
DICTIONARY
  5
1A
102
{ACAD_REACTORS
330
C
102
}
330
C
100
AcDbDictionary
  0
DICTIONARY
  5
A5
102
{ACAD_REACTORS
330
C
102
}
330
C
100
AcDbDictionary
  3
TSTACKALIGN
350
A6
  3
TSTACKSIZE
350
A7
  3
HYPERLINKBASE
350
A8
  3
STYLESHEET
350
A9
  3
LAYOUTDICT
350
AA
  3
PLOTSETDICT
350
AB
  3
PLOTSTYLNAMDICT
350
AC
  3
LWETCUNION
350
AD
  3
INSUNITS
350
AE
  3
CEPSNTYPE
350
AF
  3
FINGERPRINTGUID
350
B0
  3
VERSIONGUID
350
B1
  3
PSVPSCALE
350
B2
  3
DIMSTYLEDATA
350
B3
  3
PUCSORTHOREF
350
B4
  3
PUCSORTHOVIEW
350
B5
  3
PUCSBASE
350
B6
  3
PUCSORGTOP
350
B7
  3
PUCSORGBOTTOM
350
B8
  3
PUCSORGLEFT
350
B9
  3
PUCSORGRIGHT
350
BA
  3
PUCSORGFRONT
350
BB
  3
PUCSORGBACK
350
BC
  3
UCSORTHOREF
350
BD
  3
UCSORTHOVIEW
350
BE
  3
UCSBASE
350
BF
  3
UCSORGTOP
350
C0
  3
UCSORGBOTTOM
350
C1
  3
UCSORGLEFT
350
C2
  3
UCSORGRIGHT
350
C3
  3
UCSORGFRONT
350
C4
  3
UCSORGBACK
350
C5
  0
XRECORD
  5
C9
102
{ACAD_REACTORS
330
C8
102
}
330
C8
100
AcDbXrecord
340
1F
  0
XRECORD
  5
C7
102
{ACAD_REACTORS
330
C6
102
}
330
C6
100
AcDbXrecord
340
1B
  0
GROUP
  5
84
102
{ACAD_REACTORS
330
D
102
}
330
D
100
AcDbGroup
300

 70
     0
 71
     1
340
85
340
86
340
87
340
88
340
89
340
8A
340
8B
340
8C
340
8D
340
8E
340
8F
  0
ACDBPLACEHOLDER
  5
F
102
{ACAD_REACTORS
330
E
102
}
330
E
100
AcDbPlaceHolder
280
     0
  0
MLINESTYLE
  5
18
102
{ACAD_REACTORS
330
17
102
}
330
17
100
AcDbMlineStyle
  2
STANDARD
 70
     0
  3

 62
   256
 51
90.0
 52
90.0
 71
     2
 49
0.5
 62
   256
  6
BYLAYER
 49
-0.5
 62
   256
  6
BYLAYER
  0
XRECORD
  5
A6
102
{ACAD_REACTORS
330
A5
102
}
330
A5
100
AcDbXrecord
 90
        1
  0
XRECORD
  5
A7
102
{ACAD_REACTORS
330
A5
102
}
330
A5
100
AcDbXrecord
 90
       70
  0
XRECORD
  5
A8
102
{ACAD_REACTORS
330
A5
102
}
330
A5
100
AcDbXrecord
  1

  0
XRECORD
  5
A9
102
{ACAD_REACTORS
330
A5
102
}
330
A5
100
AcDbXrecord
  1

  0
XRECORD
  5
AA
102
{ACAD_REACTORS
330
A5
102
}
330
A5
100
AcDbXrecord
340
1A
  0
XRECORD
  5
AB
102
{ACAD_REACTORS
330
A5
102
}
330
A5
100
AcDbXrecord
340
19
  0
XRECORD
  5
AC
102
{ACAD_REACTORS
330
A5
102
}
330
A5
100
AcDbXrecord
340
E
  0
XRECORD
  5
AD
102
{ACAD_REACTORS
330
A5
102
}
330
A5
100
AcDbXrecord
 90
    10781
  0
XRECORD
  5
AE
102
{ACAD_REACTORS
330
A5
102
}
330
A5
100
AcDbXrecord
 90
        0
  0
XRECORD
  5
AF
102
{ACAD_REACTORS
330
A5
102
}
330
A5
100
AcDbXrecord
 90
        0
  0
XRECORD
  5
B0
102
{ACAD_REACTORS
330
A5
102
}
330
A5
100
AcDbXrecord
  1
{94CE8384-061C-11D4-8736-0050DABC2B6F}
  0
XRECORD
  5
B1
102
{ACAD_REACTORS
330
A5
102
}
330
A5
100
AcDbXrecord
  1
{94CE8385-061C-11D4-8736-0050DABC2B6F}
  0
XRECORD
  5
B2
102
{ACAD_REACTORS
330
A5
102
}
330
A5
100
AcDbXrecord
 40
0.0
  0
XRECORD
  5
B3
102
{ACAD_REACTORS
330
A5
102
}
330
A5
100
AcDbXrecord
1000
DSTYLE
1002
{
1070
   277
 70
     4
1002
}
  0
XRECORD
  5
B4
102
{ACAD_REACTORS
330
A5
102
}
330
A5
100
AcDbXrecord
340
0
  0
XRECORD
  5
B5
102
{ACAD_REACTORS
330
A5
102
}
330
A5
100
AcDbXrecord
 70
     0
  0
XRECORD
  5
B6
102
{ACAD_REACTORS
330
A5
102
}
330
A5
100
AcDbXrecord
340
0
  0
XRECORD
  5
B7
102
{ACAD_REACTORS
330
A5
102
}
330
A5
100
AcDbXrecord
 10
0.0
 20
0.0
 30
0.0
  0
XRECORD
  5
B8
102
{ACAD_REACTORS
330
A5
102
}
330
A5
100
AcDbXrecord
 10
0.0
 20
0.0
 30
0.0
  0
XRECORD
  5
B9
102
{ACAD_REACTORS
330
A5
102
}
330
A5
100
AcDbXrecord
 10
0.0
 20
0.0
 30
0.0
  0
XRECORD
  5
BA
102
{ACAD_REACTORS
330
A5
102
}
330
A5
100
AcDbXrecord
 10
0.0
 20
0.0
 30
0.0
  0
XRECORD
  5
BB
102
{ACAD_REACTORS
330
A5
102
}
330
A5
100
AcDbXrecord
 10
0.0
 20
0.0
 30
0.0
  0
XRECORD
  5
BC
102
{ACAD_REACTORS
330
A5
102
}
330
A5
100
AcDbXrecord
 10
0.0
 20
0.0
 30
0.0
  0
XRECORD
  5
BD
102
{ACAD_REACTORS
330
A5
102
}
330
A5
100
AcDbXrecord
340
0
  0
XRECORD
  5
BE
102
{ACAD_REACTORS
330
A5
102
}
330
A5
100
AcDbXrecord
 70
     0
  0
XRECORD
  5
BF
102
{ACAD_REACTORS
330
A5
102
}
330
A5
100
AcDbXrecord
340
0
  0
XRECORD
  5
C0
102
{ACAD_REACTORS
330
A5
102
}
330
A5
100
AcDbXrecord
 10
0.0
 20
0.0
 30
0.0
  0
XRECORD
  5
C1
102
{ACAD_REACTORS
330
A5
102
}
330
A5
100
AcDbXrecord
 10
0.0
 20
0.0
 30
0.0
  0
XRECORD
  5
C2
102
{ACAD_REACTORS
330
A5
102
}
330
A5
100
AcDbXrecord
 10
0.0
 20
0.0
 30
0.0
  0
XRECORD
  5
C3
102
{ACAD_REACTORS
330
A5
102
}
330
A5
100
AcDbXrecord
 10
0.0
 20
0.0
 30
0.0
  0
XRECORD
  5
C4
102
{ACAD_REACTORS
330
A5
102
}
330
A5
100
AcDbXrecord
 10
0.0
 20
0.0
 30
0.0
  0
XRECORD
  5
C5
102
{ACAD_REACTORS
330
A5
102
}
330
A5
100
AcDbXrecord
 10
0.0
 20
0.0
 30
0.0
  0
ENDSEC
  0
EOF
