  0
SECTION
  2
HEADER
  9
$ACADVER
  1
AC1014
  9
$ACADMAINTVER
 70
     6
  9
$DWGCODEPAGE
  3
ANSI_1252
  9
$INSBASE
 10
0.0
 20
0.0
 30
0.0
  9
$EXTMIN
 10
0.2714273971779347
 20
1.191307170104894
 30
-0.00000001
  9
$EXTMAX
 10
7.967000000000002
 20
10.13547172809534
 30
0.00000001
  9
$LIMMIN
 10
0.0
 20
0.0
  9
$LIMMAX
 10
8.506666666666665
 20
11.00666666666666
  9
$ORTHOMODE
 70
     0
  9
$REGENMODE
 70
     1
  9
$FILLMODE
 70
     1
  9
$QTEXTMODE
 70
     0
  9
$MIRRTEXT
 70
     1
  9
$DRAGMODE
 70
     2
  9
$LTSCALE
 40
1.0
  9
$OSMODE
 70
     0
  9
$ATTMODE
 70
     1
  9
$TEXTSIZE
 40
0.15
  9
$TRACEWID
 40
0.05
  9
$TEXTSTYLE
  7
STANDARD
  9
$CLAYER
  8
0
  9
$CELTYPE
  6
BYLAYER
  9
$CECOLOR
 62
     1
  9
$CELTSCALE
 40
1.0
  9
$DELOBJ
 70
     1
  9
$DISPSILH
 70
     0
  9
$DIMSCALE
 40
1.0
  9
$DIMASZ
 40
0.18
  9
$DIMEXO
 40
0.0625
  9
$DIMDLI
 40
0.38
  9
$DIMRND
 40
0.0
  9
$DIMDLE
 40
0.0
  9
$DIMEXE
 40
0.18
  9
$DIMTP
 40
0.0
  9
$DIMTM
 40
0.0
  9
$DIMTXT
 40
0.125
  9
$DIMCEN
 40
0.09
  9
$DIMTSZ
 40
0.0
  9
$DIMTOL
 70
     0
  9
$DIMLIM
 70
     0
  9
$DIMTIH
 70
     1
  9
$DIMTOH
 70
     1
  9
$DIMSE1
 70
     0
  9
$DIMSE2
 70
     0
  9
$DIMTAD
 70
     0
  9
$DIMZIN
 70
     0
  9
$DIMBLK
  1

  9
$DIMASO
 70
     1
  9
$DIMSHO
 70
     1
  9
$DIMPOST
  1

  9
$DIMAPOST
  1

  9
$DIMALT
 70
     0
  9
$DIMALTD
 70
     2
  9
$DIMALTF
 40
25.4
  9
$DIMLFAC
 40
1.0
  9
$DIMTOFL
 70
     0
  9
$DIMTVP
 40
0.0
  9
$DIMTIX
 70
     0
  9
$DIMSOXD
 70
     0
  9
$DIMSAH
 70
     0
  9
$DIMBLK1
  1

  9
$DIMBLK2
  1

  9
$DIMSTYLE
  2
STANDARD
  9
$DIMCLRD
 70
     0
  9
$DIMCLRE
 70
     0
  9
$DIMCLRT
 70
     0
  9
$DIMTFAC
 40
1.0
  9
$DIMGAP
 40
0.09
  9
$DIMJUST
 70
     0
  9
$DIMSD1
 70
     0
  9
$DIMSD2
 70
     0
  9
$DIMTOLJ
 70
     1
  9
$DIMTZIN
 70
     0
  9
$DIMALTZ
 70
     0
  9
$DIMALTTZ
 70
     0
  9
$DIMFIT
 70
     3
  9
$DIMUPT
 70
     0
  9
$DIMUNIT
 70
     4
  9
$DIMDEC
 70
     4
  9
$DIMTDEC
 70
     4
  9
$DIMALTU
 70
     2
  9
$DIMALTTD
 70
     2
  9
$DIMTXSTY
  7
STANDARD
  9
$DIMAUNIT
 70
     1
  9
$LUNITS
 70
     2
  9
$LUPREC
 70
     4
  9
$SKETCHINC
 40
0.1
  9
$FILLETRAD
 40
0.5
  9
$AUNITS
 70
     0
  9
$AUPREC
 70
     3
  9
$MENU
  1
.
  9
$ELEVATION
 40
0.0
  9
$PELEVATION
 40
0.0
  9
$THICKNESS
 40
0.0
  9
$LIMCHECK
 70
     0
  9
$BLIPMODE
 70
     0
  9
$CHAMFERA
 40
0.25
  9
$CHAMFERB
 40
0.25
  9
$CHAMFERC
 40
0.0
  9
$CHAMFERD
 40
0.0
  9
$SKPOLY
 70
     0
  9
$TDCREATE
 40
2451628.839031366
  9
$TDUPDATE
 40
2349742.236262211
  9
$TDINDWG
 40
0.0000540509
  9
$TDUSRTIMER
 40
0.0000540509
  9
$USRTIMER
 70
     1
  9
$ANGBASE
 50
0.0
  9
$ANGDIR
 70
     0
  9
$PDMODE
 70
     0
  9
$PDSIZE
 40
0.0
  9
$PLINEWID
 40
0.0
  9
$COORDS
 70
     0
  9
$SPLFRAME
 70
     0
  9
$SPLINETYPE
 70
     6
  9
$SPLINESEGS
 70
     8
  9
$ATTDIA
 70
     0
  9
$ATTREQ
 70
     1
  9
$HANDLING
 70
 12289
  9
$HANDSEED
  5
2C6
  9
$SURFTAB1
 70
     6
  9
$SURFTAB2
 70
     6
  9
$SURFTYPE
 70
     6
  9
$SURFU
 70
     6
  9
$SURFV
 70
     6
  9
$UCSNAME
  2

  9
$UCSORG
 10
0.0
 20
0.0
 30
0.0
  9
$UCSXDIR
 10
1.0
 20
0.0
 30
0.0
  9
$UCSYDIR
 10
0.0
 20
1.0
 30
0.0
  9
$PUCSNAME
  2

  9
$PUCSORG
 10
0.0
 20
0.0
 30
0.0
  9
$PUCSXDIR
 10
1.0
 20
0.0
 30
0.0
  9
$PUCSYDIR
 10
0.0
 20
1.0
 30
0.0
  9
$USERI1
 70
     0
  9
$USERI2
 70
     0
  9
$USERI3
 70
     0
  9
$USERI4
 70
     0
  9
$USERI5
 70
     0
  9
$USERR1
 40
0.0
  9
$USERR2
 40
0.0
  9
$USERR3
 40
0.0
  9
$USERR4
 40
0.0
  9
$USERR5
 40
0.0
  9
$WORLDVIEW
 70
     1
  9
$SHADEDGE
 70
     3
  9
$SHADEDIF
 70
    70
  9
$TILEMODE
 70
     1
  9
$MAXACTVP
 70
    64
  9
$PINSBASE
 10
0.0
 20
0.0
 30
0.0
  9
$PLIMCHECK
 70
     0
  9
$PEXTMIN
 10
1.000000000000000E+20
 20
1.000000000000000E+20
 30
1.000000000000000E+20
  9
$PEXTMAX
 10
-1.000000000000000E+20
 20
-1.000000000000000E+20
 30
-1.000000000000000E+20
  9
$PLIMMIN
 10
0.0
 20
0.0
  9
$PLIMMAX
 10
12.0
 20
9.0
  9
$UNITMODE
 70
     0
  9
$VISRETAIN
 70
     1
  9
$PLINEGEN
 70
     0
  9
$PSLTSCALE
 70
     1
  9
$TREEDEPTH
 70
  3020
  9
$PICKSTYLE
 70
     1
  9
$CMLSTYLE
  2
STANDARD
  9
$CMLJUST
 70
     0
  9
$CMLSCALE
 40
1.0
  9
$PROXYGRAPHICS
 70
     1
  9
$MEASUREMENT
 70
     0
  0
ENDSEC
  0
SECTION
  2
CLASSES
  0
CLASS
  1
ACDBDICTIONARYWDFLT
  2
AcDbDictionaryWithDefault
  3
AutoCAD 2000
 90
        0
280
     0
281
     0
  0
CLASS
  1
ACDBPLACEHOLDER
  2
AcDbPlaceHolder
  3
AutoCAD 2000
 90
        0
280
     0
281
     0
  0
CLASS
  1
LAYOUT
  2
AcDbLayout
  3
AutoCAD 2000
 90
        0
280
     0
281
     0
  0
CLASS
  1
LONG_TRANSACTION
  2
AcDbLongTransaction
  3
AutoCAD 2000
 90
        0
280
     0
281
     0
  0
CLASS
  1
LWPOLYLINE
  2
AcDbPolyline
  3
AutoCAD 2000
 90
        0
280
     0
281
     1
  0
CLASS
  1
HATCH
  2
AcDbHatch
  3
AutoCAD 2000
 90
        0
280
     0
281
     1
  0
CLASS
  1
XRECORD
  2
AcDbXrecord
  3
AutoCAD 2000
 90
        0
280
     0
281
     0
  0
ENDSEC
  0
SECTION
  2
TABLES
  0
TABLE
  2
VPORT
  5
8
330
0
100
AcDbSymbolTable
 70
     1
  0
VPORT
  5
13
330
8
100
AcDbSymbolTableRecord
100
AcDbViewportTableRecord
  2
*ACTIVE
 70
     0
 10
0.0
 20
0.0
 11
1.0
 21
1.0
 12
4.253333333333332
 22
5.503333333333332
 13
0.0
 23
0.0
 14
1.0
 24
1.0
 15
0.0
 25
0.0
 16
0.0
 26
0.0
 36
1.0
 17
0.0
 27
0.0
 37
0.0
 40
11.00666666666666
 41
0.7728649303452454
 42
50.0
 43
0.0
 44
0.0
 50
0.0
 51
0.0
 71
     0
 72
   100
 73
     1
 74
     1
 75
     0
 76
     0
 77
     0
 78
     0
  0
ENDTAB
  0
TABLE
  2
LTYPE
  5
5
330
0
100
AcDbSymbolTable
 70
    40
  0
LTYPE
  5
14
330
5
100
AcDbSymbolTableRecord
100
AcDbLinetypeTableRecord
  2
BYBLOCK
 70
     0
  3

 72
    65
 73
     0
 40
0.0
  0
LTYPE
  5
15
330
5
100
AcDbSymbolTableRecord
100
AcDbLinetypeTableRecord
  2
BYLAYER
 70
     0
  3

 72
    65
 73
     0
 40
0.0
  0
LTYPE
  5
16
330
5
100
AcDbSymbolTableRecord
100
AcDbLinetypeTableRecord
  2
CONTINUOUS
 70
     0
  3
Solid line
 72
    65
 73
     0
 40
0.0
  0
LTYPE
  5
28
330
5
100
AcDbSymbolTableRecord
100
AcDbLinetypeTableRecord
  2
HIDDEN
 70
     0
  3
_ _ _ _ _ _ _ _ _ _ _ _ _ _ 
 72
    65
 73
     2
 40
0.375
 49
0.25
 74
     0
 49
-0.125
 74
     0
  0
LTYPE
  5
29
330
5
100
AcDbSymbolTableRecord
100
AcDbLinetypeTableRecord
  2
DASHED
 70
     0
  3
__ __ __ __ __ __ __ __ __ 
 72
    65
 73
     2
 40
0.75
 49
0.5
 74
     0
 49
-0.25
 74
     0
  0
LTYPE
  5
2A
330
5
100
AcDbSymbolTableRecord
100
AcDbLinetypeTableRecord
  2
CENTER
 70
     0
  3
____ _ ____ _ ____ _ ____ _ 
 72
    65
 73
     4
 40
2.0
 49
1.25
 74
     0
 49
-0.25
 74
     0
 49
0.25
 74
     0
 49
-0.25
 74
     0
  0
LTYPE
  5
2B
330
5
100
AcDbSymbolTableRecord
100
AcDbLinetypeTableRecord
  2
PHANTOM
 70
     0
  3
_____ _ _ _____ _ _ _____ _ _ 
 72
    65
 73
     6
 40
2.5
 49
1.25
 74
     0
 49
-0.25
 74
     0
 49
0.25
 74
     0
 49
-0.25
 74
     0
 49
0.25
 74
     0
 49
-0.25
 74
     0
  0
LTYPE
  5
2C
330
5
100
AcDbSymbolTableRecord
100
AcDbLinetypeTableRecord
  2
DOT
 70
     0
  3
...........................
 72
    65
 73
     2
 40
0.25
 49
0.0
 74
     0
 49
-0.25
 74
     0
  0
LTYPE
  5
2D
330
5
100
AcDbSymbolTableRecord
100
AcDbLinetypeTableRecord
  2
DASHDOT
 70
     0
  3
__ . __ . __ . __ . __ . __ . 
 72
    65
 73
     4
 40
1.0
 49
0.5
 74
     0
 49
-0.25
 74
     0
 49
0.0
 74
     0
 49
-0.25
 74
     0
  0
LTYPE
  5
2E
330
5
100
AcDbSymbolTableRecord
100
AcDbLinetypeTableRecord
  2
DIVIDE
 70
     0
  3
__ . . __ . . __ . . __ . . 
 72
    65
 73
     6
 40
1.25
 49
0.5
 74
     0
 49
-0.25
 74
     0
 49
0.0
 74
     0
 49
-0.25
 74
     0
 49
0.0
 74
     0
 49
-0.25
 74
     0
  0
LTYPE
  5
2F
330
5
100
AcDbSymbolTableRecord
100
AcDbLinetypeTableRecord
  2
BORDER
 70
     0
  3
__ __ . __ __ . __ __ . __ __ .
 72
    65
 73
     6
 40
1.75
 49
0.5
 74
     0
 49
-0.25
 74
     0
 49
0.5
 74
     0
 49
-0.25
 74
     0
 49
0.0
 74
     0
 49
-0.25
 74
     0
  0
LTYPE
  5
30
330
5
100
AcDbSymbolTableRecord
100
AcDbLinetypeTableRecord
  2
BORDER2
 70
     0
  3
Border (.5x) __.__.__.__.__.__.
 72
    65
 73
     6
 40
0.875
 49
0.25
 74
     0
 49
-0.125
 74
     0
 49
0.25
 74
     0
 49
-0.125
 74
     0
 49
0.0
 74
     0
 49
-0.125
 74
     0
  0
LTYPE
  5
31
330
5
100
AcDbSymbolTableRecord
100
AcDbLinetypeTableRecord
  2
BORDERX2
 70
     0
  3
Border (2x) ____  ____  .  ____
 72
    65
 73
     6
 40
3.5
 49
1.0
 74
     0
 49
-0.5
 74
     0
 49
1.0
 74
     0
 49
-0.5
 74
     0
 49
0.0
 74
     0
 49
-0.5
 74
     0
  0
LTYPE
  5
32
330
5
100
AcDbSymbolTableRecord
100
AcDbLinetypeTableRecord
  2
CENTER2
 70
     0
  3
Center (.5x) ___ _ ___ _ ___ _ 
 72
    65
 73
     4
 40
1.125
 49
0.7500000000000001
 74
     0
 49
-0.125
 74
     0
 49
0.125
 74
     0
 49
-0.125
 74
     0
  0
LTYPE
  5
33
330
5
100
AcDbSymbolTableRecord
100
AcDbLinetypeTableRecord
  2
CENTERX2
 70
     0
  3
Center (2x) ________  __  _____
 72
    65
 73
     4
 40
4.0
 49
2.5
 74
     0
 49
-0.5
 74
     0
 49
0.5
 74
     0
 49
-0.5
 74
     0
  0
LTYPE
  5
34
330
5
100
AcDbSymbolTableRecord
100
AcDbLinetypeTableRecord
  2
DASHDOT2
 70
     0
  3
Dash dot (.5x) _._._._._._._._.
 72
    65
 73
     4
 40
0.5
 49
0.25
 74
     0
 49
-0.125
 74
     0
 49
0.0
 74
     0
 49
-0.125
 74
     0
  0
LTYPE
  5
35
330
5
100
AcDbSymbolTableRecord
100
AcDbLinetypeTableRecord
  2
DASHDOTX2
 70
     0
  3
Dash dot (2x) ____  .  ____  . 
 72
    65
 73
     4
 40
2.0
 49
1.0
 74
     0
 49
-0.5
 74
     0
 49
0.0
 74
     0
 49
-0.5
 74
     0
  0
LTYPE
  5
36
330
5
100
AcDbSymbolTableRecord
100
AcDbLinetypeTableRecord
  2
DASHED2
 70
     0
  3
Dashed (.5x) _ _ _ _ _ _ _ _ _ 
 72
    65
 73
     2
 40
0.375
 49
0.25
 74
     0
 49
-0.125
 74
     0
  0
LTYPE
  5
37
330
5
100
AcDbSymbolTableRecord
100
AcDbLinetypeTableRecord
  2
DASHEDX2
 70
     0
  3
Dashed (2x) ____  ____  ____  _
 72
    65
 73
     2
 40
1.5
 49
1.0
 74
     0
 49
-0.5
 74
     0
  0
LTYPE
  5
38
330
5
100
AcDbSymbolTableRecord
100
AcDbLinetypeTableRecord
  2
DIVIDE2
 70
     0
  3
Divide (.5x) __..__..__..__..__
 72
    65
 73
     6
 40
0.625
 49
0.25
 74
     0
 49
-0.125
 74
     0
 49
0.0
 74
     0
 49
-0.125
 74
     0
 49
0.0
 74
     0
 49
-0.125
 74
     0
  0
LTYPE
  5
39
330
5
100
AcDbSymbolTableRecord
100
AcDbLinetypeTableRecord
  2
DIVIDEX2
 70
     0
  3
Divide (2x) ________  .  .  ___
 72
    65
 73
     6
 40
2.5
 49
1.0
 74
     0
 49
-0.5
 74
     0
 49
0.0
 74
     0
 49
-0.5
 74
     0
 49
0.0
 74
     0
 49
-0.5
 74
     0
  0
LTYPE
  5
3A
330
5
100
AcDbSymbolTableRecord
100
AcDbLinetypeTableRecord
  2
DOT2
 70
     0
  3
Dot (.5x) .....................
 72
    65
 73
     2
 40
0.125
 49
0.0
 74
     0
 49
-0.125
 74
     0
  0
LTYPE
  5
3B
330
5
100
AcDbSymbolTableRecord
100
AcDbLinetypeTableRecord
  2
DOTX2
 70
     0
  3
Dot (2x) .  .  .  .  .  .  .  .
 72
    65
 73
     2
 40
0.5
 49
0.0
 74
     0
 49
-0.5
 74
     0
  0
LTYPE
  5
3C
330
5
100
AcDbSymbolTableRecord
100
AcDbLinetypeTableRecord
  2
HIDDEN2
 70
     0
  3
Hidden (.5x) _ _ _ _ _ _ _ _ _ 
 72
    65
 73
     2
 40
0.1875
 49
0.125
 74
     0
 49
-0.0625
 74
     0
  0
LTYPE
  5
3D
330
5
100
AcDbSymbolTableRecord
100
AcDbLinetypeTableRecord
  2
HIDDENX2
 70
     0
  3
Hidden (2x) ____ ____ ____ ____
 72
    65
 73
     2
 40
0.75
 49
0.5
 74
     0
 49
-0.25
 74
     0
  0
LTYPE
  5
3E
330
5
100
AcDbSymbolTableRecord
100
AcDbLinetypeTableRecord
  2
PHANTOM2
 70
     0
  3
Phantom (.5x) ___ _ _ ___ _ _ _
 72
    65
 73
     6
 40
1.25
 49
0.6250000000000001
 74
     0
 49
-0.125
 74
     0
 49
0.125
 74
     0
 49
-0.125
 74
     0
 49
0.125
 74
     0
 49
-0.125
 74
     0
  0
LTYPE
  5
3F
330
5
100
AcDbSymbolTableRecord
100
AcDbLinetypeTableRecord
  2
PHANTOMX2
 70
     0
  3
Phantom (2x) ____________    __
 72
    65
 73
     6
 40
5.0
 49
2.5
 74
     0
 49
-0.5
 74
     0
 49
0.5
 74
     0
 49
-0.5
 74
     0
 49
0.5
 74
     0
 49
-0.5
 74
     0
  0
LTYPE
  5
40
330
5
100
AcDbSymbolTableRecord
100
AcDbLinetypeTableRecord
  2
DOTS
 70
     0
  3
Dots - - - - - - - - - - - - - 
 72
    65
 73
     2
 40
0.1
 49
0.05
 74
     0
 49
-0.05
 74
     0
  0
LTYPE
  5
41
330
5
100
AcDbSymbolTableRecord
100
AcDbLinetypeTableRecord
  2
ACAD_ISO02W100
 70
     0
  3
__ __ __ __ __ __ __ __ __ __ _
 72
    65
 73
     2
 40
15.0
 49
12.0
 74
     0
 49
-3.0
 74
     0
  0
LTYPE
  5
42
330
5
100
AcDbSymbolTableRecord
100
AcDbLinetypeTableRecord
  2
ACAD_ISO03W100
 70
     0
  3
__    __    __    __    __    _
 72
    65
 73
     2
 40
30.0
 49
12.0
 74
     0
 49
-18.0
 74
     0
  0
LTYPE
  5
43
330
5
100
AcDbSymbolTableRecord
100
AcDbLinetypeTableRecord
  2
ACAD_ISO04W100
 70
     0
  3
____ . ____ . ____ . ____ . ___
 72
    65
 73
     4
 40
30.5
 49
24.0
 74
     0
 49
-3.0
 74
     0
 49
0.5
 74
     0
 49
-3.0
 74
     0
  0
LTYPE
  5
44
330
5
100
AcDbSymbolTableRecord
100
AcDbLinetypeTableRecord
  2
ACAD_ISO05W100
 70
     0
  3
____ .. ____ .. ____ .. ____ ..
 72
    65
 73
     6
 40
34.0
 49
24.0
 74
     0
 49
-3.0
 74
     0
 49
0.5
 74
     0
 49
-3.0
 74
     0
 49
0.5
 74
     0
 49
-3.0
 74
     0
  0
LTYPE
  5
45
330
5
100
AcDbSymbolTableRecord
100
AcDbLinetypeTableRecord
  2
ACAD_ISO06W100
 70
     0
  3
____ ... ____ ... ____ ... ____
 72
    65
 73
     6
 40
34.0
 49
24.0
 74
     0
 49
-3.0
 74
     0
 49
0.5
 74
     0
 49
-3.0
 74
     0
 49
0.5
 74
     0
 49
-3.0
 74
     0
  0
LTYPE
  5
46
330
5
100
AcDbSymbolTableRecord
100
AcDbLinetypeTableRecord
  2
ACAD_ISO07W100
 70
     0
  3
. . . . . . . . . . . . . . . .
 72
    65
 73
     2
 40
3.5
 49
0.5
 74
     0
 49
-3.0
 74
     0
  0
LTYPE
  5
47
330
5
100
AcDbSymbolTableRecord
100
AcDbLinetypeTableRecord
  2
ACAD_ISO08W100
 70
     0
  3
____ __ ____ __ ____ __ ____ __
 72
    65
 73
     4
 40
36.0
 49
24.0
 74
     0
 49
-3.0
 74
     0
 49
6.0
 74
     0
 49
-3.0
 74
     0
  0
LTYPE
  5
48
330
5
100
AcDbSymbolTableRecord
100
AcDbLinetypeTableRecord
  2
ACAD_ISO09W100
 70
     0
  3
____ __ __ ____ __ __ ____ __ _
 72
    65
 73
     6
 40
45.0
 49
24.0
 74
     0
 49
-3.0
 74
     0
 49
6.0
 74
     0
 49
-3.0
 74
     0
 49
6.0
 74
     0
 49
-3.0
 74
     0
  0
LTYPE
  5
49
330
5
100
AcDbSymbolTableRecord
100
AcDbLinetypeTableRecord
  2
ACAD_ISO10W100
 70
     0
  3
__ . __ . __ . __ . __ . __ . _
 72
    65
 73
     4
 40
18.5
 49
12.0
 74
     0
 49
-3.0
 74
     0
 49
0.5
 74
     0
 49
-3.0
 74
     0
  0
LTYPE
  5
4A
330
5
100
AcDbSymbolTableRecord
100
AcDbLinetypeTableRecord
  2
ACAD_ISO11W100
 70
     0
  3
__ __ . __ __ . __ __ . __ __ .
 72
    65
 73
     6
 40
33.5
 49
12.0
 74
     0
 49
-3.0
 74
     0
 49
12.0
 74
     0
 49
-3.0
 74
     0
 49
0.5
 74
     0
 49
-3.0
 74
     0
  0
LTYPE
  5
4B
330
5
100
AcDbSymbolTableRecord
100
AcDbLinetypeTableRecord
  2
ACAD_ISO12W100
 70
     0
  3
__ . . __ . . __ . . __ . . __ 
 72
    65
 73
     6
 40
22.0
 49
12.0
 74
     0
 49
-3.0
 74
     0
 49
0.5
 74
     0
 49
-3.0
 74
     0
 49
0.5
 74
     0
 49
-3.0
 74
     0
  0
LTYPE
  5
4C
330
5
100
AcDbSymbolTableRecord
100
AcDbLinetypeTableRecord
  2
ACAD_ISO13W100
 70
     0
  3
__ __ . . __ __ . . __ __ . . _
 72
    65
 73
     6
 40
33.5
 49
12.0
 74
     0
 49
-3.0
 74
     0
 49
12.0
 74
     0
 49
-3.0
 74
     0
 49
0.5
 74
     0
 49
-3.0
 74
     0
  0
LTYPE
  5
4D
330
5
100
AcDbSymbolTableRecord
100
AcDbLinetypeTableRecord
  2
ACAD_ISO14W100
 70
     0
  3
__ . . . __ . . . __ . . . __ .
 72
    65
 73
     6
 40
22.0
 49
12.0
 74
     0
 49
-3.0
 74
     0
 49
0.5
 74
     0
 49
-3.0
 74
     0
 49
0.5
 74
     0
 49
-3.0
 74
     0
  0
LTYPE
  5
4E
330
5
100
AcDbSymbolTableRecord
100
AcDbLinetypeTableRecord
  2
ACAD_ISO15W100
 70
     0
  3
__ __ . . . __ __ . . . __ __ .
 72
    65
 73
     6
 40
33.5
 49
12.0
 74
     0
 49
-3.0
 74
     0
 49
12.0
 74
     0
 49
-3.0
 74
     0
 49
0.5
 74
     0
 49
-3.0
 74
     0
  0
ENDTAB
  0
TABLE
  2
LAYER
  5
2
330
0
100
AcDbSymbolTable
 70
    11
  0
LAYER
  5
10
330
2
100
AcDbSymbolTableRecord
100
AcDbLayerTableRecord
  2
0
 70
     0
 62
     7
  6
CONTINUOUS
  0
LAYER
  5
4F
330
2
100
AcDbSymbolTableRecord
100
AcDbLayerTableRecord
  2
BEARING
 70
     0
 62
     7
  6
CONTINUOUS
  0
LAYER
  5
50
330
2
100
AcDbSymbolTableRecord
100
AcDbLayerTableRecord
  2
BEARINGDIMS
 70
     0
 62
     7
  6
CONTINUOUS
  0
LAYER
  5
51
330
2
100
AcDbSymbolTableRecord
100
AcDbLayerTableRecord
  2
BEARINGHOUSING
 70
     0
 62
     7
  6
CONTINUOUS
  0
LAYER
  5
52
330
2
100
AcDbSymbolTableRecord
100
AcDbLayerTableRecord
  2
BEARINGHOUSINGDIMS
 70
     0
 62
     7
  6
CONTINUOUS
  0
LAYER
  5
53
330
2
100
AcDbSymbolTableRecord
100
AcDbLayerTableRecord
  2
COMMON
 70
     0
 62
     7
  6
CONTINUOUS
  0
LAYER
  5
54
330
2
100
AcDbSymbolTableRecord
100
AcDbLayerTableRecord
  2
DIAL
 70
     0
 62
     7
  6
CONTINUOUS
  0
LAYER
  5
55
330
2
100
AcDbSymbolTableRecord
100
AcDbLayerTableRecord
  2
DIALDIMS
 70
     0
 62
     7
  6
CONTINUOUS
  0
LAYER
  5
56
330
2
100
AcDbSymbolTableRecord
100
AcDbLayerTableRecord
  2
HANDLEWASHER
 70
     0
 62
     7
  6
CONTINUOUS
  0
LAYER
  5
57
330
2
100
AcDbSymbolTableRecord
100
AcDbLayerTableRecord
  2
LEADSCREW
 70
     0
 62
     7
  6
CONTINUOUS
  0
LAYER
  5
58
330
2
100
AcDbSymbolTableRecord
100
AcDbLayerTableRecord
  2
LEADSCREWDIMS
 70
     0
 62
     7
  6
CONTINUOUS
  0
ENDTAB
  0
TABLE
  2
STYLE
  5
3
330
0
100
AcDbSymbolTable
 70
     5
  0
STYLE
  5
11
330
3
100
AcDbSymbolTableRecord
100
AcDbTextStyleTableRecord
  2
STANDARD
 70
     0
 40
0.0
 41
1.0
 50
0.0
 71
     0
 42
0.15
  3
txt
  4

  0
STYLE
  5
59
330
3
100
AcDbSymbolTableRecord
100
AcDbTextStyleTableRecord
  2
ITALIC
 70
     0
 40
0.0
 41
1.0
 50
0.0
 71
     0
 42
0.15
  3
ITALIC
  4

  0
STYLE
  5
5A
330
3
100
AcDbSymbolTableRecord
100
AcDbTextStyleTableRecord
  2
SIMPLEX
 70
     0
 40
0.0
 41
1.0
 50
0.0
 71
     0
 42
0.15
  3
SIMPLEX
  4

  0
STYLE
  5
5B
330
3
100
AcDbSymbolTableRecord
100
AcDbTextStyleTableRecord
  2
COMPLEX
 70
     0
 40
0.0
 41
1.0
 50
0.0
 71
     0
 42
0.15
  3
COMPLEX
  4

  0
STYLE
  5
5C
330
3
100
AcDbSymbolTableRecord
100
AcDbTextStyleTableRecord
  2
ARIAL
 70
     0
 40
0.0
 41
1.0
 50
0.0
 71
     0
 42
0.15
  3
ARIAL.TTF
  4

1001
ACAD
1000
Arial
1071
        0
  0
ENDTAB
  0
TABLE
  2
VIEW
  5
6
330
0
100
AcDbSymbolTable
 70
     0
  0
ENDTAB
  0
TABLE
  2
UCS
  5
7
330
0
100
AcDbSymbolTable
 70
     0
  0
ENDTAB
  0
TABLE
  2
APPID
  5
9
330
0
100
AcDbSymbolTable
 70
     1
  0
APPID
  5
12
330
9
100
AcDbSymbolTableRecord
100
AcDbRegAppTableRecord
  2
ACAD
 70
     0
  0
ENDTAB
  0
TABLE
  2
DIMSTYLE
  5
A
330
0
100
AcDbSymbolTable
 70
     1
  0
DIMSTYLE
105
27
330
A
100
AcDbSymbolTableRecord
100
AcDbDimStyleTableRecord
  2
STANDARD
 70
     0
  3

  4

  5

  6

  7

 40
1.0
 41
0.18
 42
0.0625
 43
0.38
 44
0.18
 45
0.0
 46
0.0
 47
0.0
 48
0.0
140
0.18
141
0.09
142
0.0
143
25.4
144
1.0
145
0.0
146
1.0
147
0.09
 71
     0
 72
     0
 73
     1
 74
     1
 75
     0
 76
     0
 77
     0
 78
     0
170
     0
171
     2
172
     0
173
     0
174
     0
175
     0
176
     0
177
     0
178
     0
270
     2
271
     4
272
     4
273
     2
274
     2
340
11
275
     0
280
     0
281
     0
282
     0
283
     1
284
     0
285
     0
286
     0
287
     3
288
     0
  0
ENDTAB
  0
TABLE
  2
BLOCK_RECORD
  5
1
330
0
100
AcDbSymbolTable
 70
     3
  0
BLOCK_RECORD
  5
1F
102
{ACAD_XDICTIONARY
360
2C2
102
}
330
1
100
AcDbSymbolTableRecord
100
AcDbBlockTableRecord
  2
*MODEL_SPACE
  0
BLOCK_RECORD
  5
1B
102
{ACAD_XDICTIONARY
360
2C0
102
}
330
1
100
AcDbSymbolTableRecord
100
AcDbBlockTableRecord
  2
*PAPER_SPACE
  0
BLOCK_RECORD
  5
64
330
1
100
AcDbSymbolTableRecord
100
AcDbBlockTableRecord
  2
LONGARROW
  0
BLOCK_RECORD
  5
250
330
1
100
AcDbSymbolTableRecord
100
AcDbBlockTableRecord
  2
CROSS
  0
ENDTAB
  0
ENDSEC
  0
SECTION
  2
BLOCKS
  0
BLOCK
  5
20
330
1F
100
AcDbEntity
  8
0
100
AcDbBlockBegin
  2
*MODEL_SPACE
 70
     0
 10
0.0
 20
0.0
 30
0.0
  3
*MODEL_SPACE
  1

  0
ENDBLK
  5
21
330
1F
100
AcDbEntity
  8
0
100
AcDbBlockEnd
  0
BLOCK
  5
1C
330
1B
100
AcDbEntity
 67
     1
  8
0
100
AcDbBlockBegin
  2
*PAPER_SPACE
 70
     0
 10
0.0
 20
0.0
 30
0.0
  3
*PAPER_SPACE
  1

  0
ENDBLK
  5
1D
330
1B
100
AcDbEntity
 67
     1
  8
0
100
AcDbBlockEnd
  0
BLOCK
  5
67
330
64
100
AcDbEntity
  8
0
 62
     1
100
AcDbBlockBegin
  2
LONGARROW
 70
     0
 10
0.0
 20
0.0
 30
0.0
  3
LONGARROW
  1

  0
LWPOLYLINE
  5
65
102
{ACAD_REACTORS
330
66
102
}
330
64
100
AcDbEntity
  8
BEARING
  6
CONTINUOUS
 62
     0
100
AcDbPolyline
 90
        3
 70
     1
 43
0.0
 10
0.0
 20
0.0
 10
2.0
 20
-0.25
 10
2.0
 20
0.25
  0
HATCH
  5
66
330
64
100
AcDbEntity
  8
BEARING
  6
CONTINUOUS
 62
     0
100
AcDbHatch
 10
0.0
 20
0.0
 30
0.0
210
0.0
220
0.0
230
1.0
  2
SOLID
 70
     1
 71
     1
 91
        1
 92
        1
 93
        3
 72
     1
 10
0.0
 20
0.0
 11
2.0
 21
-0.25
 72
     1
 10
2.0
 20
-0.25
 11
2.0
 21
0.25
 72
     1
 10
2.0
 20
0.25
 11
0.0
 21
0.0
 97
        1
330
65
 75
     0
 76
     1
 98
        1
 10
0.0
 20
0.0
  0
ENDBLK
  5
68
330
64
100
AcDbEntity
  8
0
 62
     1
100
AcDbBlockEnd
  0
BLOCK
  5
255
330
250
100
AcDbEntity
  8
0
 62
     1
100
AcDbBlockBegin
  2
CROSS
 70
     0
 10
0.0
 20
0.0
 30
0.0
  3
CROSS
  1

  0
LINE
  5
251
330
250
100
AcDbEntity
  8
BEARING
  6
CONTINUOUS
 62
     0
100
AcDbLine
 10
-0.5
 20
0.0
 30
0.0
 11
0.5
 21
0.0
 31
0.0
  0
LINE
  5
252
330
250
100
AcDbEntity
  8
BEARING
  6
CONTINUOUS
 62
     0
100
AcDbLine
 10
0.0
 20
-0.5
 30
0.0
 11
0.0
 21
0.5
 31
0.0
  0
LINE
  5
253
330
250
100
AcDbEntity
  8
BEARING
  6
CONTINUOUS
 62
     0
100
AcDbLine
 10
0.5
 20
0.0
 30
0.0
 11
-0.5
 21
0.0
 31
0.0
  0
LINE
  5
254
330
250
100
AcDbEntity
  8
BEARING
  6
CONTINUOUS
 62
     0
100
AcDbLine
 10
0.0
 20
0.5
 30
0.0
 11
0.0
 21
-0.5
 31
0.0
  0
ENDBLK
  5
256
330
250
100
AcDbEntity
  8
0
 62
     1
100
AcDbBlockEnd
  0
ENDSEC
  0
SECTION
  2
ENTITIES
  0
TEXT
  5
5D
330
1F
100
AcDbEntity
  8
BEARINGHOUSINGDIMS
  6
CONTINUOUS
 62
     1
100
AcDbText
 10
1.732083615359439
 20
2.485390020584074
 30
0.0
 40
0.125
  1
0.4350"
  7
ARIAL
 72
     1
 11
1.99942790947534
 21
2.547890020584074
 31
0.0
100
AcDbText
 73
     2
  0
LINE
  5
5E
330
1F
100
AcDbEntity
  8
BEARINGHOUSING
  6
HIDDEN
 62
     1
100
AcDbLine
 10
4.1205
 20
8.277999999999998
 30
0.0
 11
4.0
 21
8.277999999999998
 31
0.0
  0
TEXT
  5
5F
330
1F
100
AcDbEntity
  8
LEADSCREWDIMS
  6
CONTINUOUS
 62
   252
100
AcDbText
 10
4.628672146126628
 20
9.822971728095346
 30
0.0
 40
0.125
  1
0.1200"
  7
ARIAL
 72
     1
 11
4.896016440242529
 21
9.885471728095346
 31
0.0
100
AcDbText
 73
     2
  0
LINE
  5
60
330
1F
100
AcDbEntity
  8
LEADSCREWDIMS
  6
CONTINUOUS
 62
   252
100
AcDbLine
 10
4.0
 20
8.761000000000002
 30
0.0
 11
4.0
 21
10.13547172809534
 31
0.0
  0
LINE
  5
61
330
1F
100
AcDbEntity
  8
LEADSCREWDIMS
  6
CONTINUOUS
 62
   252
100
AcDbLine
 10
4.12
 20
8.761000000000002
 30
0.0
 11
4.12
 21
10.13547172809534
 31
0.0
  0
LINE
  5
62
330
1F
100
AcDbEntity
  8
LEADSCREWDIMS
  6
CONTINUOUS
 62
   252
100
AcDbLine
 10
4.0
 20
9.885471728095346
 30
0.0
 11
3.625
 21
9.885471728095346
 31
0.0
  0
LINE
  5
63
330
1F
100
AcDbEntity
  8
LEADSCREWDIMS
  6
CONTINUOUS
 62
   252
100
AcDbLine
 10
4.12
 20
9.885471728095346
 30
0.0
 11
4.495
 21
9.885471728095346
 31
0.0
  0
INSERT
  5
69
330
1F
100
AcDbEntity
  8
LEADSCREWDIMS
  6
CONTINUOUS
 62
   252
100
AcDbBlockReference
  2
LONGARROW
 10
4.0
 20
9.885471728095346
 30
0.0
 41
0.125
 42
0.125
 50
180.0
  0
INSERT
  5
6A
330
1F
100
AcDbEntity
  8
LEADSCREWDIMS
  6
CONTINUOUS
 62
   252
100
AcDbBlockReference
  2
LONGARROW
 10
4.12
 20
9.885471728095346
 30
0.0
 41
0.125
 42
0.125
  0
LINE
  5
6B
330
1F
100
AcDbEntity
  8
LEADSCREW
  6
CONTINUOUS
 62
     7
100
AcDbLine
 10
4.120000000000001
 20
8.273000000000001
 30
0.0
 11
4.000000000000001
 21
8.273000000000001
 31
0.0
  0
LINE
  5
6C
330
1F
100
AcDbEntity
  8
COMMON
  6
CENTER2
 62
     7
100
AcDbLine
 10
0.4669999999999999
 20
8.000000000000001
 30
0.0
 11
7.967000000000002
 21
8.000000000000001
 31
0.0
  0
LINE
  5
6D
330
1F
100
AcDbEntity
  8
LEADSCREW
  6
CONTINUOUS
 62
     7
100
AcDbLine
 10
4.0
 20
8.273000000000003
 30
0.0
 11
4.0
 21
7.727000000000002
 31
0.0
  0
LINE
  5
6E
330
1F
100
AcDbEntity
  8
LEADSCREW
  6
CONTINUOUS
 62
     7
100
AcDbLine
 10
4.000000000000001
 20
7.727000000000002
 30
0.0
 11
4.120000000000001
 21
7.727000000000002
 31
0.0
  0
LINE
  5
6F
330
1F
100
AcDbEntity
  8
LEADSCREW
  6
CONTINUOUS
 62
     7
100
AcDbLine
 10
4.12
 20
7.727000000000002
 30
0.0
 11
4.12
 21
8.273000000000003
 31
0.0
  0
LINE
  5
70
330
1F
100
AcDbEntity
  8
LEADSCREW
  6
CONTINUOUS
 62
     7
100
AcDbLine
 10
4.0
 20
8.194000000000002
 30
0.0
 11
0.7600000000000003
 21
8.194000000000002
 31
0.0
  0
LINE
  5
71
330
1F
100
AcDbEntity
  8
LEADSCREW
  6
CONTINUOUS
 62
     7
100
AcDbLine
 10
0.75
 20
8.177000000000001
 30
0.0
 11
0.7500000000000002
 21
7.823000000000002
 31
0.0
  0
LINE
  5
72
330
1F
100
AcDbEntity
  8
LEADSCREW
  6
CONTINUOUS
 62
     7
100
AcDbLine
 10
0.7600000000000003
 20
7.806000000000001
 30
0.0
 11
4.0
 21
7.806000000000001
 31
0.0
  0
LWPOLYLINE
  5
73
330
1F
100
AcDbEntity
  8
LEADSCREW
  6
HIDDEN
 62
     7
100
AcDbPolyline
 90
        3
 70
     0
 43
0.0
 10
3.75
 20
8.194000000000002
 10
3.75
 20
8.177000000000001
 10
0.7500000000000002
 20
8.177000000000001
  0
LWPOLYLINE
  5
74
330
1F
100
AcDbEntity
  8
LEADSCREW
  6
CONTINUOUS
 62
     7
100
AcDbPolyline
 90
        2
 70
     0
 43
0.0
 10
0.7500000000000002
 20
8.177000000000001
 10
0.7600000000000003
 20
8.194000000000002
  0
LINE
  5
75
330
1F
100
AcDbEntity
  8
LEADSCREW
  6
CONTINUOUS
 62
     7
100
AcDbLine
 10
2.16297945349071
 20
8.176999999999999
 30
0.0
 11
2.192424317219383
 21
8.194
 31
0.0
  0
LINE
  5
76
330
1F
100
AcDbEntity
  8
LEADSCREW
  6
CONTINUOUS
 62
     7
100
AcDbLine
 10
3.464
 20
8.177000000000001
 30
0.0
 11
3.464
 21
8.194000000000002
 31
0.0
  0
LINE
  5
77
330
1F
100
AcDbEntity
  8
LEADSCREW
  6
CONTINUOUS
 62
     7
100
AcDbLine
 10
2.598
 20
8.177000000000001
 30
0.0
 11
2.598
 21
8.194000000000002
 31
0.0
  0
LINE
  5
78
330
1F
100
AcDbEntity
  8
LEADSCREW
  6
CONTINUOUS
 62
     7
100
AcDbLine
 10
1.732
 20
8.177000000000001
 30
0.0
 11
1.732
 21
8.194000000000002
 31
0.0
  0
LINE
  5
79
330
1F
100
AcDbEntity
  8
LEADSCREW
  6
CONTINUOUS
 62
     7
100
AcDbLine
 10
0.8660000000000007
 20
8.177000000000001
 30
0.0
 11
0.8660000000000007
 21
8.194000000000002
 31
0.0
  0
LWPOLYLINE
  5
7A
330
1F
100
AcDbEntity
  8
LEADSCREW
  6
HIDDEN
 62
     7
100
AcDbPolyline
 90
        3
 70
     0
 43
0.0
 10
3.75
 20
7.806000000000001
 10
3.75
 20
7.823000000000002
 10
0.7500000000000002
 20
7.823000000000002
  0
LINE
  5
7B
330
1F
100
AcDbEntity
  8
LEADSCREW
  6
CONTINUOUS
 62
     7
100
AcDbLine
 10
0.7500000000000002
 20
7.823000000000002
 30
0.0
 11
0.7600000000000003
 21
7.806000000000001
 31
0.0
  0
LWPOLYLINE
  5
7C
330
1F
100
AcDbEntity
  8
LEADSCREW
  6
CONTINUOUS
 62
     7
100
AcDbPolyline
 90
        2
 70
     0
 43
0.0
 10
4.720000000000001
 20
8.205000000000001
 10
4.931
 20
8.205000000000001
  0
LWPOLYLINE
  5
7D
330
1F
100
AcDbEntity
  8
LEADSCREW
  6
CONTINUOUS
 62
     7
100
AcDbPolyline
 90
        2
 70
     0
 43
0.0
 10
4.720000000000001
 20
7.795000000000001
 10
4.931
 20
7.795000000000001
  0
LINE
  5
7E
330
1F
100
AcDbEntity
  8
LEADSCREW
  6
CONTINUOUS
 62
     7
100
AcDbLine
 10
4.17
 20
8.2355
 30
0.0
 11
4.720000000000001
 21
8.2355
 31
0.0
  0
LINE
  5
7F
330
1F
100
AcDbEntity
  8
LEADSCREW
  6
CONTINUOUS
 62
     7
100
AcDbLine
 10
4.720000000000001
 20
8.236500000000001
 30
0.0
 11
4.720000000000001
 21
7.764499999999999
 31
0.0
  0
LINE
  5
80
330
1F
100
AcDbEntity
  8
LEADSCREW
  6
CONTINUOUS
 62
     7
100
AcDbLine
 10
4.720000000000001
 20
7.764499999999999
 30
0.0
 11
4.170000000000009
 21
7.764499999999999
 31
0.0
  0
LINE
  5
81
330
1F
100
AcDbEntity
  8
LEADSCREW
  6
CONTINUOUS
 62
     7
100
AcDbLine
 10
4.931
 20
8.236500000000001
 30
0.0
 11
4.931
 21
7.764500000000001
 31
0.0
  0
LINE
  5
82
330
1F
100
AcDbEntity
  8
LEADSCREW
  6
CONTINUOUS
 62
     7
100
AcDbLine
 10
5.123426470588233
 20
8.1575
 30
0.0
 11
5.548000000000001
 21
8.157500000000002
 31
0.0
  0
LINE
  5
83
330
1F
100
AcDbEntity
  8
LEADSCREW
  6
CONTINUOUS
 62
     7
100
AcDbLine
 10
5.548
 20
8.157500000000002
 30
0.0
 11
5.548
 21
7.842500000000002
 31
0.0
  0
LINE
  5
84
330
1F
100
AcDbEntity
  8
LEADSCREW
  6
CONTINUOUS
 62
     7
100
AcDbLine
 10
5.548
 20
7.842500000000002
 30
0.0
 11
5.122
 21
7.842500000000002
 31
0.0
  0
LINE
  5
85
330
1F
100
AcDbEntity
  8
LEADSCREW
  6
CONTINUOUS
 62
     7
100
AcDbLine
 10
4.931
 20
7.764500000000001
 30
0.0
 11
5.073000000000001
 21
7.764500000000001
 31
0.0
  0
LINE
  5
86
330
1F
100
AcDbEntity
  8
LEADSCREW
  6
CONTINUOUS
 62
     7
100
AcDbLine
 10
5.073
 20
7.764500000000001
 30
0.0
 11
5.073000000000001
 21
8.236500000000001
 31
0.0
  0
LINE
  5
87
330
1F
100
AcDbEntity
  8
LEADSCREW
  6
CONTINUOUS
 62
     7
100
AcDbLine
 10
5.073000000000001
 20
8.236500000000001
 30
0.0
 11
4.931
 21
8.236500000000001
 31
0.0
  0
LWPOLYLINE
  5
88
330
1F
100
AcDbEntity
  8
LEADSCREW
  6
CONTINUOUS
 62
     7
100
AcDbPolyline
 90
        2
 70
     0
 43
0.0
 10
4.170000000000009
 20
7.764499999999999
 10
4.12
 20
7.780000000000002
  0
LWPOLYLINE
  5
89
330
1F
100
AcDbEntity
  8
LEADSCREW
  6
CONTINUOUS
 62
     7
100
AcDbPolyline
 90
        2
 70
     0
 43
0.0
 10
4.170000000000009
 20
7.764499999999999
 10
4.17
 20
8.235499999999998
  0
LWPOLYLINE
  5
8A
330
1F
100
AcDbEntity
  8
LEADSCREW
  6
CONTINUOUS
 62
     7
100
AcDbPolyline
 90
        2
 70
     0
 43
0.0
 10
4.17
 20
8.2355
 10
4.12
 20
8.220000000000002
  0
LWPOLYLINE
  5
8B
330
1F
100
AcDbEntity
  8
LEADSCREW
  6
CONTINUOUS
 62
     7
100
AcDbPolyline
 90
        2
 70
     0
 43
0.0
 10
5.123426470588233
 20
8.1575
 10
5.073500000000001
 20
8.140000000000002
  0
LWPOLYLINE
  5
8C
330
1F
100
AcDbEntity
  8
LEADSCREW
  6
CONTINUOUS
 62
     7
100
AcDbPolyline
 90
        2
 70
     0
 43
0.0
 10
5.122
 20
8.157000000000001
 10
5.122
 20
7.842500000000002
  0
LWPOLYLINE
  5
8D
330
1F
100
AcDbEntity
  8
LEADSCREW
  6
CONTINUOUS
 62
     7
100
AcDbPolyline
 90
        2
 70
     0
 43
0.0
 10
5.122
 20
7.842500000000002
 10
5.073000000000001
 20
7.860000000000002
  0
TEXT
  5
8E
330
1F
100
AcDbEntity
  8
LEADSCREWDIMS
  6
CONTINUOUS
 62
   252
100
AcDbText
 10
5.436774220451713
 20
9.375287646703743
 30
0.0
 40
0.125
  1
0.2110"
  7
ARIAL
 72
     1
 11
5.698322666943074
 21
9.437787646703743
 31
0.0
100
AcDbText
 73
     2
  0
LINE
  5
8F
330
1F
100
AcDbEntity
  8
LEADSCREWDIMS
  6
CONTINUOUS
 62
   252
100
AcDbLine
 10
4.720000000000001
 20
8.941000000000002
 30
0.0
 11
4.720000000000001
 21
9.687787646703743
 31
0.0
  0
LINE
  5
90
330
1F
100
AcDbEntity
  8
LEADSCREWDIMS
  6
CONTINUOUS
 62
   252
100
AcDbLine
 10
4.931
 20
8.941000000000002
 30
0.0
 11
4.931
 21
9.687787646703743
 31
0.0
  0
LINE
  5
91
330
1F
100
AcDbEntity
  8
LEADSCREWDIMS
  6
CONTINUOUS
 62
   252
100
AcDbLine
 10
4.720000000000001
 20
9.437787646703743
 30
0.0
 11
4.345000000000001
 21
9.437787646703743
 31
0.0
  0
LINE
  5
92
330
1F
100
AcDbEntity
  8
LEADSCREWDIMS
  6
CONTINUOUS
 62
   252
100
AcDbLine
 10
4.931
 20
9.437787646703743
 30
0.0
 11
5.306
 21
9.437787646703743
 31
0.0
  0
INSERT
  5
93
330
1F
100
AcDbEntity
  8
LEADSCREWDIMS
  6
CONTINUOUS
 62
   252
100
AcDbBlockReference
  2
LONGARROW
 10
4.720000000000001
 20
9.437787646703743
 30
0.0
 41
0.125
 42
0.125
 50
180.0
  0
INSERT
  5
94
330
1F
100
AcDbEntity
  8
LEADSCREWDIMS
  6
CONTINUOUS
 62
   252
100
AcDbBlockReference
  2
LONGARROW
 10
4.931
 20
9.437787646703743
 30
0.0
 41
0.125
 42
0.125
  0
TEXT
  5
95
330
1F
100
AcDbEntity
  8
LEADSCREWDIMS
  6
CONTINUOUS
 62
   252
100
AcDbText
 10
6.056672146126628
 20
8.83330469144915
 30
0.0
 40
0.125
  1
0.4750"
  7
ARIAL
 72
     1
 11
6.324016440242529
 21
8.89580469144915
 31
0.0
100
AcDbText
 73
     2
  0
LINE
  5
96
330
1F
100
AcDbEntity
  8
LEADSCREWDIMS
  6
CONTINUOUS
 62
   252
100
AcDbLine
 10
5.073000000000001
 20
8.787899509383212
 30
0.0
 11
5.073000000000001
 21
9.14580469144915
 31
0.0
  0
LINE
  5
97
330
1F
100
AcDbEntity
  8
LEADSCREWDIMS
  6
CONTINUOUS
 62
   252
100
AcDbLine
 10
5.548
 20
8.769500000000004
 30
0.0
 11
5.548
 21
9.14580469144915
 31
0.0
  0
LINE
  5
98
330
1F
100
AcDbEntity
  8
LEADSCREWDIMS
  6
CONTINUOUS
 62
   252
100
AcDbLine
 10
5.073000000000001
 20
8.89580469144915
 30
0.0
 11
4.698000000000001
 21
8.89580469144915
 31
0.0
  0
LINE
  5
99
330
1F
100
AcDbEntity
  8
LEADSCREWDIMS
  6
CONTINUOUS
 62
   252
100
AcDbLine
 10
5.548
 20
8.89580469144915
 30
0.0
 11
5.923
 21
8.89580469144915
 31
0.0
  0
INSERT
  5
9A
330
1F
100
AcDbEntity
  8
LEADSCREWDIMS
  6
CONTINUOUS
 62
   252
100
AcDbBlockReference
  2
LONGARROW
 10
5.073000000000001
 20
8.89580469144915
 30
0.0
 41
0.125
 42
0.125
 50
180.0
  0
INSERT
  5
9B
330
1F
100
AcDbEntity
  8
LEADSCREWDIMS
  6
CONTINUOUS
 62
   252
100
AcDbBlockReference
  2
LONGARROW
 10
5.548
 20
8.89580469144915
 30
0.0
 41
0.125
 42
0.125
  0
TEXT
  5
9C
330
1F
100
AcDbEntity
  8
LEADSCREWDIMS
  6
CONTINUOUS
 62
   252
100
AcDbText
 10
3.076639265641571
 20
7.010496477386939
 30
0.0
 40
0.125
  1
0.6000"
  7
ARIAL
 72
     1
 11
3.343983559757472
 21
7.072996477386939
 31
0.0
100
AcDbText
 73
     2
  0
LINE
  5
9D
330
1F
100
AcDbEntity
  8
LEADSCREWDIMS
  6
CONTINUOUS
 62
   252
100
AcDbLine
 10
4.720000000000001
 20
7.224000000000001
 30
0.0
 11
4.720000000000001
 21
6.822996477386939
 31
0.0
  0
LINE
  5
9E
330
1F
100
AcDbEntity
  8
LEADSCREWDIMS
  6
CONTINUOUS
 62
   252
100
AcDbLine
 10
4.12
 20
7.214023969062181
 30
0.0
 11
4.12
 21
6.822996477386939
 31
0.0
  0
LINE
  5
9F
330
1F
100
AcDbEntity
  8
LEADSCREWDIMS
  6
CONTINUOUS
 62
   252
100
AcDbLine
 10
4.720000000000001
 20
7.072996477386939
 30
0.0
 11
5.095000000000001
 21
7.072996477386939
 31
0.0
  0
LINE
  5
A0
330
1F
100
AcDbEntity
  8
LEADSCREWDIMS
  6
CONTINUOUS
 62
   252
100
AcDbLine
 10
4.12
 20
7.072996477386939
 30
0.0
 11
3.745
 21
7.072996477386939
 31
0.0
  0
INSERT
  5
A1
330
1F
100
AcDbEntity
  8
LEADSCREWDIMS
  6
CONTINUOUS
 62
   252
100
AcDbBlockReference
  2
LONGARROW
 10
4.720000000000001
 20
7.072996477386939
 30
0.0
 41
0.125
 42
0.125
  0
INSERT
  5
A2
330
1F
100
AcDbEntity
  8
LEADSCREWDIMS
  6
CONTINUOUS
 62
   252
100
AcDbBlockReference
  2
LONGARROW
 10
4.12
 20
7.072996477386939
 30
0.0
 41
0.125
 42
0.125
 50
180.0
  0
TEXT
  5
A3
330
1F
100
AcDbEntity
  8
LEADSCREWDIMS
  6
CONTINUOUS
 62
   252
100
AcDbText
 10
0.2540831030620334
 20
8.583250000000003
 30
0.0
 40
0.125
  1
0.3710"
  7
ARIAL
 72
     1
 11
0.5214273971779343
 21
8.645750000000003
 31
0.0
100
AcDbText
 73
     2
  0
LINE
  5
A4
330
1F
100
AcDbEntity
  8
LEADSCREWDIMS
  6
CONTINUOUS
 62
   252
100
AcDbLine
 10
0.6350000000000003
 20
7.806000000000001
 30
0.0
 11
0.2714273971779352
 21
7.806000000000001
 31
0.0
  0
LINE
  5
A5
330
1F
100
AcDbEntity
  8
LEADSCREWDIMS
  6
CONTINUOUS
 62
   252
100
AcDbLine
 10
0.6326378950215636
 20
8.177000000000003
 30
0.0
 11
0.2714273971779347
 21
8.177000000000003
 31
0.0
  0
LINE
  5
A6
330
1F
100
AcDbEntity
  8
LEADSCREWDIMS
  6
CONTINUOUS
 62
   252
100
AcDbLine
 10
0.5214273971779352
 20
7.806000000000001
 30
0.0
 11
0.5214273971779356
 21
7.431000000000001
 31
0.0
  0
LINE
  5
A7
330
1F
100
AcDbEntity
  8
LEADSCREWDIMS
  6
CONTINUOUS
 62
   252
100
AcDbLine
 10
0.5214273971779348
 20
8.177000000000003
 30
0.0
 11
0.5214273971779343
 21
8.552000000000003
 31
0.0
  0
INSERT
  5
A8
330
1F
100
AcDbEntity
  8
LEADSCREWDIMS
  6
CONTINUOUS
 62
   252
100
AcDbBlockReference
  2
LONGARROW
 10
0.5214273971779352
 20
7.806000000000001
 30
0.0
 41
0.125
 42
0.125
 50
270.0
  0
INSERT
  5
A9
330
1F
100
AcDbEntity
  8
LEADSCREWDIMS
  6
CONTINUOUS
 62
   252
100
AcDbBlockReference
  2
LONGARROW
 10
0.5214273971779348
 20
8.177000000000003
 30
0.0
 41
0.125
 42
0.125
 50
90.00000000000005
  0
TEXT
  5
AA
330
1F
100
AcDbEntity
  8
LEADSCREWDIMS
  6
CONTINUOUS
 62
   252
100
AcDbText
 10
2.107655705884099
 20
7.374154770012269
 30
0.0
 40
0.125
  1
3.2500"
  7
ARIAL
 72
     1
 11
2.375
 21
7.436654770012269
 31
0.0
100
AcDbText
 73
     2
  0
LINE
  5
AB
330
1F
100
AcDbEntity
  8
LEADSCREWDIMS
  6
CONTINUOUS
 62
   252
100
AcDbLine
 10
4.0
 20
7.436654770012269
 30
0.0
 11
2.776016440242529
 21
7.436654770012269
 31
0.0
  0
LINE
  5
AC
330
1F
100
AcDbEntity
  8
LEADSCREWDIMS
  6
CONTINUOUS
 62
   252
100
AcDbLine
 10
0.7500000000000002
 20
7.436654770012269
 30
0.0
 11
1.973983559757471
 21
7.436654770012269
 31
0.0
  0
INSERT
  5
AD
330
1F
100
AcDbEntity
  8
LEADSCREWDIMS
  6
CONTINUOUS
 62
   252
100
AcDbBlockReference
  2
LONGARROW
 10
4.0
 20
7.436654770012269
 30
0.0
 41
0.125
 42
0.125
 50
180.0
  0
INSERT
  5
AE
330
1F
100
AcDbEntity
  8
LEADSCREWDIMS
  6
CONTINUOUS
 62
   252
100
AcDbBlockReference
  2
LONGARROW
 10
0.7500000000000002
 20
7.436654770012269
 30
0.0
 41
0.125
 42
0.125
  0
LWPOLYLINE
  5
AF
330
1F
100
AcDbEntity
  8
BEARING
  6
HIDDEN
 62
     5
100
AcDbPolyline
 90
        2
 70
     0
 43
0.0
 10
4.286000000000001
 20
8.317500000000002
 10
4.600000000000001
 20
8.317500000000002
  0
LWPOLYLINE
  5
B0
330
1F
100
AcDbEntity
  8
BEARING
  6
HIDDEN
 62
     5
100
AcDbPolyline
 90
        2
 70
     0
 43
0.0
 10
4.286000000000001
 20
7.679500000000001
 10
4.600000000000001
 20
7.679500000000001
  0
LINE
  5
B1
330
1F
100
AcDbEntity
  8
BEARING
  6
HIDDEN
 62
     5
100
AcDbLine
 10
4.286
 20
8.235999999999998
 30
0.0
 11
4.599999999999999
 21
8.235999999999998
 31
0.0
  0
LWPOLYLINE
  5
B2
330
1F
100
AcDbEntity
  8
BEARING
  6
HIDDEN
 62
     5
100
AcDbPolyline
 90
        2
 70
     0
 43
0.0
 10
4.286000000000001
 20
8.489500000000001
 10
4.600000000000001
 20
8.489500000000001
  0
LWPOLYLINE
  5
B3
330
1F
100
AcDbEntity
  8
BEARING
  6
HIDDEN
 62
     5
100
AcDbPolyline
 90
        2
 70
     0
 43
0.0
 10
4.286000000000001
 20
7.507500000000002
 10
4.600000000000001
 20
7.507500000000002
  0
TEXT
  5
B4
330
1F
100
AcDbEntity
  8
BEARINGDIMS
  6
CONTINUOUS
 62
     5
100
AcDbText
 10
5.630175978252173
 20
7.232750000000005
 30
0.0
 40
0.125
  1
0.4720"
  7
ARIAL
 72
     1
 11
5.897520272368074
 21
7.295250000000005
 31
0.0
100
AcDbText
 73
     2
  0
LINE
  5
B5
330
1F
100
AcDbEntity
  8
BEARINGDIMS
  6
CONTINUOUS
 62
     5
100
AcDbLine
 10
5.3815
 20
8.236000000000005
 30
0.0
 11
6.147520272368073
 21
8.236000000000005
 31
0.0
  0
LINE
  5
B6
330
1F
100
AcDbEntity
  8
BEARINGDIMS
  6
CONTINUOUS
 62
     5
100
AcDbLine
 10
5.3815
 20
7.764000000000005
 30
0.0
 11
6.147520272368074
 21
7.764000000000005
 31
0.0
  0
LINE
  5
B7
330
1F
100
AcDbEntity
  8
BEARINGDIMS
  6
CONTINUOUS
 62
     5
100
AcDbLine
 10
5.897520272368073
 20
8.236000000000005
 30
0.0
 11
5.897520272368073
 21
8.611000000000005
 31
0.0
  0
LINE
  5
B8
330
1F
100
AcDbEntity
  8
BEARINGDIMS
  6
CONTINUOUS
 62
     5
100
AcDbLine
 10
5.897520272368074
 20
7.764000000000005
 30
0.0
 11
5.897520272368074
 21
7.389000000000005
 31
0.0
  0
INSERT
  5
B9
330
1F
100
AcDbEntity
  8
BEARINGDIMS
  6
CONTINUOUS
 62
     5
100
AcDbBlockReference
  2
LONGARROW
 10
5.897520272368073
 20
8.236000000000005
 30
0.0
 41
0.125
 42
0.125
 50
90.00000000000007
  0
INSERT
  5
BA
330
1F
100
AcDbEntity
  8
BEARINGDIMS
  6
CONTINUOUS
 62
     5
100
AcDbBlockReference
  2
LONGARROW
 10
5.897520272368074
 20
7.764000000000005
 30
0.0
 41
0.125
 42
0.125
 50
270.0
  0
TEXT
  5
BB
330
1F
100
AcDbEntity
  8
BEARINGDIMS
  6
CONTINUOUS
 62
     5
100
AcDbText
 10
6.035444627802451
 20
7.937500000000001
 30
0.0
 40
0.125
  1
1.1020"
  7
ARIAL
 72
     1
 11
6.302788921918352
 21
8.000000000000001
 31
0.0
100
AcDbText
 73
     2
  0
LINE
  5
BC
330
1F
100
AcDbEntity
  8
BEARINGDIMS
  6
CONTINUOUS
 62
     5
100
AcDbLine
 10
5.369500000000001
 20
8.551000000000001
 30
0.0
 11
6.552788921918352
 21
8.551000000000001
 31
0.0
  0
LINE
  5
BD
330
1F
100
AcDbEntity
  8
BEARINGDIMS
  6
CONTINUOUS
 62
     5
100
AcDbLine
 10
5.369500000000001
 20
7.449000000000001
 30
0.0
 11
6.552788921918353
 21
7.449000000000001
 31
0.0
  0
LINE
  5
BE
330
1F
100
AcDbEntity
  8
BEARINGDIMS
  6
CONTINUOUS
 62
     5
100
AcDbLine
 10
6.302788921918352
 20
8.551000000000001
 30
0.0
 11
6.302788921918352
 21
8.093750000000001
 31
0.0
  0
LINE
  5
BF
330
1F
100
AcDbEntity
  8
BEARINGDIMS
  6
CONTINUOUS
 62
     5
100
AcDbLine
 10
6.302788921918353
 20
7.449000000000001
 30
0.0
 11
6.302788921918353
 21
7.906250000000001
 31
0.0
  0
INSERT
  5
C0
330
1F
100
AcDbEntity
  8
BEARINGDIMS
  6
CONTINUOUS
 62
     5
100
AcDbBlockReference
  2
LONGARROW
 10
6.302788921918352
 20
8.551000000000001
 30
0.0
 41
0.125
 42
0.125
 50
270.0
  0
INSERT
  5
C1
330
1F
100
AcDbEntity
  8
BEARINGDIMS
  6
CONTINUOUS
 62
     5
100
AcDbBlockReference
  2
LONGARROW
 10
6.302788921918353
 20
7.449000000000001
 30
0.0
 41
0.125
 42
0.125
 50
90.00000000000005
  0
LINE
  5
C2
330
1F
100
AcDbEntity
  8
BEARINGHOUSING
  6
CONTINUOUS
 62
     1
100
AcDbLine
 10
4.0
 20
8.650999999999999
 30
0.0
 11
4.0
 21
7.349000000000001
 31
0.0
  0
LINE
  5
C3
330
1F
100
AcDbEntity
  8
BEARINGHOUSING
  6
CONTINUOUS
 62
     1
100
AcDbLine
 10
4.0
 20
7.349000000000001
 30
0.0
 11
4.605
 21
7.349000000000001
 31
0.0
  0
LINE
  5
C4
330
1F
100
AcDbEntity
  8
BEARINGHOUSING
  6
CONTINUOUS
 62
     1
100
AcDbLine
 10
4.604999999999999
 20
8.651000000000001
 30
0.0
 11
4.604999999999999
 21
7.349000000000001
 31
0.0
  0
LINE
  5
C5
330
1F
100
AcDbEntity
  8
BEARINGHOUSING
  6
HIDDEN
 62
     1
100
AcDbLine
 10
4.286000000000001
 20
7.447
 30
0.0
 11
4.605000000000001
 21
7.447
 31
0.0
  0
LINE
  5
C6
330
1F
100
AcDbEntity
  8
BEARINGHOUSING
  6
HIDDEN
 62
     1
100
AcDbLine
 10
4.286000000000001
 20
8.348500000000001
 30
0.0
 11
4.266000000000001
 21
8.348500000000001
 31
0.0
  0
LINE
  5
C7
330
1F
100
AcDbEntity
  8
BEARINGHOUSING
  6
HIDDEN
 62
     1
100
AcDbLine
 10
4.266
 20
8.348500000000001
 30
0.0
 11
4.266
 21
7.648499999999999
 31
0.0
  0
LINE
  5
C8
330
1F
100
AcDbEntity
  8
BEARINGHOUSING
  6
HIDDEN
 62
     1
100
AcDbLine
 10
4.286000000000001
 20
8.55
 30
0.0
 11
4.605000000000001
 21
8.55
 31
0.0
  0
LINE
  5
C9
330
1F
100
AcDbEntity
  8
BEARINGHOUSING
  6
HIDDEN
 62
     1
100
AcDbLine
 10
4.266000000000001
 20
7.648499999999999
 30
0.0
 11
4.286000000000004
 21
7.648499999999999
 31
0.0
  0
LWPOLYLINE
  5
CA
330
1F
100
AcDbEntity
  8
BEARINGHOUSING
  6
HIDDEN
 62
     1
100
AcDbPolyline
 90
        2
 70
     0
 43
0.0
 10
4.286000000000001
 20
8.55
 10
4.286000000000001
 20
7.447
  0
LINE
  5
CB
330
1F
100
AcDbEntity
  8
BEARINGHOUSING
  6
HIDDEN
 62
     1
100
AcDbLine
 10
4.1205
 20
7.719999999999999
 30
0.0
 11
4.0
 21
7.719999999999999
 31
0.0
  0
INSERT
  5
CD
102
{ACAD_REACTORS
330
CC
102
}
330
1F
100
AcDbEntity
  8
LEADSCREWDIMS
  6
CONTINUOUS
 62
   252
100
AcDbBlockReference
  2
LONGARROW
 10
5.073
 20
6.898774422305219
 30
0.0
 41
0.125
 42
0.054173910463683
  0
INSERT
  5
CE
102
{ACAD_REACTORS
330
CC
102
}
330
1F
100
AcDbEntity
  8
LEADSCREWDIMS
  6
CONTINUOUS
 62
   252
100
AcDbBlockReference
  2
LONGARROW
 10
4.931
 20
6.898774422305219
 30
0.0
 41
0.125
 42
0.054173910463683
 50
180.0
  0
LINE
  5
CF
102
{ACAD_REACTORS
330
CC
102
}
330
1F
100
AcDbEntity
  8
LEADSCREWDIMS
  6
CONTINUOUS
 62
   252
100
AcDbLine
 10
4.931
 20
7.2765
 30
0.0
 11
4.931
 21
6.790426601377852
 31
0.0
  0
LINE
  5
D0
102
{ACAD_REACTORS
330
CC
102
}
330
1F
100
AcDbEntity
  8
LEADSCREWDIMS
  6
CONTINUOUS
 62
   252
100
AcDbLine
 10
5.073
 20
7.2765
 30
0.0
 11
5.073
 21
6.790426601377852
 31
0.0
  0
TEXT
  5
D1
102
{ACAD_REACTORS
330
CC
102
}
330
1F
100
AcDbEntity
  8
LEADSCREWDIMS
  6
CONTINUOUS
 62
   252
100
AcDbText
 10
5.493985862448813
 20
6.872579323582779
 30
0.0
 40
0.054173910463683
  1
0.1420"
 41
2.307383737487389
  7
ARIAL
 72
     1
 11
5.761500000000001
 21
6.899666278814621
 31
0.0
100
AcDbText
 73
     2
  0
LINE
  5
D2
102
{ACAD_REACTORS
330
CC
102
}
330
1F
100
AcDbEntity
  8
LEADSCREWDIMS
  6
CONTINUOUS
 62
   252
100
AcDbLine
 10
5.073
 20
6.898774422305219
 30
0.0
 11
5.448
 21
6.898774422305219
 31
0.0
  0
LINE
  5
D3
330
1F
100
AcDbEntity
  8
DIAL
  6
CONTINUOUS
 62
     3
100
AcDbLine
 10
5.073000000000001
 20
8.650999999999999
 30
0.0
 11
5.073
 21
7.349
 31
0.0
  0
LINE
  5
D4
330
1F
100
AcDbEntity
  8
DIAL
  6
CONTINUOUS
 62
     3
100
AcDbLine
 10
4.604999999999999
 20
8.651000000000001
 30
0.0
 11
4.604999999999999
 21
7.349000000000001
 31
0.0
  0
LWPOLYLINE
  5
D5
330
1F
100
AcDbEntity
  8
DIAL
  6
CONTINUOUS
 62
     3
100
AcDbPolyline
 90
        2
 70
     0
 43
0.0
 10
4.604999999999999
 20
8.651000000000001
 10
5.073000000000001
 20
8.650999999999999
  0
LWPOLYLINE
  5
D6
330
1F
100
AcDbEntity
  8
DIAL
  6
CONTINUOUS
 62
     3
100
AcDbPolyline
 90
        2
 70
     0
 43
0.0
 10
4.604999999999999
 20
7.349000000000001
 10
5.073
 20
7.349
  0
LINE
  5
D7
330
1F
100
AcDbEntity
  8
DIAL
  6
DASHED
 62
     3
100
AcDbLine
 10
4.604999999999999
 20
8.236999999999998
 30
0.0
 11
5.073000000000001
 21
8.236999999999998
 31
0.0
  0
LINE
  5
D8
330
1F
100
AcDbEntity
  8
DIAL
  6
DASHED
 62
     3
100
AcDbLine
 10
4.604999999999999
 20
7.762999999999999
 30
0.0
 11
5.073
 21
7.762999999999999
 31
0.0
  0
LWPOLYLINE
  5
D9
330
1F
100
AcDbEntity
  8
DIAL
  6
CONTINUOUS
 62
     3
100
AcDbPolyline
 90
        4
 70
     0
 43
0.0
 10
4.605000000000001
 20
8.350000000000001
 10
4.600000000000001
 20
8.350000000000001
 10
4.600000000000001
 20
7.650000000000002
 10
4.605000000000001
 20
7.650000000000002
  0
LINE
  5
DA
330
1F
100
AcDbEntity
  8
BEARINGHOUSING
  6
CONTINUOUS
 62
     1
100
AcDbLine
 10
4.0
 20
8.651000000000001
 30
0.0
 11
4.605
 21
8.651000000000001
 31
0.0
  0
LINE
  5
DB
330
1F
100
AcDbEntity
  8
BEARING
  6
HIDDEN
 62
     5
100
AcDbLine
 10
4.286
 20
7.763999999999999
 30
0.0
 11
4.599999999999999
 21
7.763999999999999
 31
0.0
  0
LINE
  5
DC
330
1F
100
AcDbEntity
  8
BEARING
  6
CONTINUOUS
 62
     6
100
AcDbLine
 10
4.286
 20
8.272999999999999
 30
0.0
 11
4.286
 21
7.725999999999999
 31
0.0
  0
LINE
  5
DD
330
1F
100
AcDbEntity
  8
BEARING
  6
CONTINUOUS
 62
     5
100
AcDbLine
 10
4.286000000000001
 20
8.549500000000001
 30
0.0
 11
4.286000000000001
 21
7.447500000000001
 31
0.0
  0
LINE
  5
DE
330
1F
100
AcDbEntity
  8
BEARING
  6
CONTINUOUS
 62
     5
100
AcDbLine
 10
4.286000000000001
 20
7.447500000000001
 30
0.0
 11
4.600000000000001
 21
7.447500000000001
 31
0.0
  0
LINE
  5
DF
330
1F
100
AcDbEntity
  8
BEARING
  6
CONTINUOUS
 62
     5
100
AcDbLine
 10
4.600000000000001
 20
7.447500000000001
 30
0.0
 11
4.600000000000001
 21
8.549500000000001
 31
0.0
  0
LINE
  5
E0
330
1F
100
AcDbEntity
  8
BEARING
  6
CONTINUOUS
 62
     5
100
AcDbLine
 10
4.600000000000001
 20
8.549500000000001
 30
0.0
 11
4.286000000000001
 21
8.549500000000001
 31
0.0
  0
LINE
  5
E1
330
1F
100
AcDbEntity
  8
DIAL
  6
CONTINUOUS
 62
     3
100
AcDbLine
 10
4.984308806541868
 20
8.236999999999994
 30
0.0
 11
5.073000000000006
 21
8.325691193458132
 31
0.0
  0
LINE
  5
E2
330
1F
100
AcDbEntity
  8
DIAL
  6
CONTINUOUS
 62
     3
100
AcDbLine
 10
4.878242789363886
 20
8.236999999999994
 30
0.0
 11
5.073000000000005
 21
8.431757210636115
 31
0.0
  0
LINE
  5
E3
330
1F
100
AcDbEntity
  8
DIAL
  6
CONTINUOUS
 62
     3
100
AcDbLine
 10
4.772176772185902
 20
8.236999999999994
 30
0.0
 11
5.073000000000005
 21
8.537823227814097
 31
0.0
  0
LINE
  5
E4
330
1F
100
AcDbEntity
  8
DIAL
  6
CONTINUOUS
 62
     3
100
AcDbLine
 10
4.666110755007921
 20
8.236999999999994
 30
0.0
 11
5.073000000000005
 21
8.643889244992079
 31
0.0
  0
LINE
  5
E5
330
1F
100
AcDbEntity
  8
DIAL
  6
CONTINUOUS
 62
     3
100
AcDbLine
 10
4.605000000000003
 20
8.281955262170059
 30
0.0
 11
4.974044737829941
 21
8.650999999999998
 31
0.0
  0
LINE
  5
E6
330
1F
100
AcDbEntity
  8
DIAL
  6
CONTINUOUS
 62
     3
100
AcDbLine
 10
4.605000000000003
 20
8.388021279348043
 30
0.0
 11
4.867978720651958
 21
8.650999999999998
 31
0.0
  0
LINE
  5
E7
330
1F
100
AcDbEntity
  8
DIAL
  6
CONTINUOUS
 62
     3
100
AcDbLine
 10
4.605000000000004
 20
8.494087296526025
 30
0.0
 11
4.761912703473976
 21
8.650999999999998
 31
0.0
  0
LINE
  5
E8
330
1F
100
AcDbEntity
  8
DIAL
  6
CONTINUOUS
 62
     3
100
AcDbLine
 10
4.605000000000003
 20
8.600153313704007
 30
0.0
 11
4.655846686295994
 21
8.650999999999998
 31
0.0
  0
LINE
  5
E9
330
1F
100
AcDbEntity
  8
DIAL
  6
CONTINUOUS
 62
     3
100
AcDbLine
 10
5.055019484660522
 20
8.236999999999996
 30
0.0
 11
5.073000000000005
 21
8.254980515339479
 31
0.0
  0
LINE
  5
EA
330
1F
100
AcDbEntity
  8
DIAL
  6
CONTINUOUS
 62
     3
100
AcDbLine
 10
4.94895346748254
 20
8.236999999999996
 30
0.0
 11
5.073000000000006
 21
8.361046532517461
 31
0.0
  0
LINE
  5
EB
330
1F
100
AcDbEntity
  8
DIAL
  6
CONTINUOUS
 62
     3
100
AcDbLine
 10
4.842887450304558
 20
8.236999999999996
 30
0.0
 11
5.073000000000006
 21
8.467112549695443
 31
0.0
  0
LINE
  5
EC
330
1F
100
AcDbEntity
  8
DIAL
  6
CONTINUOUS
 62
     3
100
AcDbLine
 10
4.736821433126576
 20
8.236999999999996
 30
0.0
 11
5.073000000000006
 21
8.573178566873426
 31
0.0
  0
LINE
  5
ED
330
1F
100
AcDbEntity
  8
DIAL
  6
CONTINUOUS
 62
     3
100
AcDbLine
 10
4.630755415948593
 20
8.236999999999994
 30
0.0
 11
5.044755415948595
 21
8.650999999999998
 31
0.0
  0
LINE
  5
EE
330
1F
100
AcDbEntity
  8
DIAL
  6
CONTINUOUS
 62
     3
100
AcDbLine
 10
4.605000000000003
 20
8.317310601229388
 30
0.0
 11
4.938689398770613
 21
8.650999999999998
 31
0.0
  0
LINE
  5
EF
330
1F
100
AcDbEntity
  8
DIAL
  6
CONTINUOUS
 62
     3
100
AcDbLine
 10
4.605000000000004
 20
8.42337661840737
 30
0.0
 11
4.832623381592632
 21
8.650999999999999
 31
0.0
  0
LINE
  5
F0
330
1F
100
AcDbEntity
  8
DIAL
  6
CONTINUOUS
 62
     3
100
AcDbLine
 10
4.605000000000003
 20
8.529442635585352
 30
0.0
 11
4.72655736441465
 21
8.650999999999999
 31
0.0
  0
LINE
  5
F1
330
1F
100
AcDbEntity
  8
DIAL
  6
CONTINUOUS
 62
     3
100
AcDbLine
 10
4.605000000000004
 20
8.635508652763336
 30
0.0
 11
4.620491347236667
 21
8.650999999999998
 31
0.0
  0
LINE
  5
F2
330
1F
100
AcDbEntity
  8
DIAL
  6
CONTINUOUS
 62
     3
100
AcDbLine
 10
5.050902961143711
 20
7.348999999999997
 30
0.0
 11
5.073000000000002
 21
7.371097038856289
 31
0.0
  0
LINE
  5
F3
330
1F
100
AcDbEntity
  8
DIAL
  6
CONTINUOUS
 62
     3
100
AcDbLine
 10
4.944836943965729
 20
7.348999999999997
 30
0.0
 11
5.073000000000003
 21
7.477163056034272
 31
0.0
  0
LINE
  5
F4
330
1F
100
AcDbEntity
  8
DIAL
  6
CONTINUOUS
 62
     3
100
AcDbLine
 10
4.838770926787747
 20
7.348999999999997
 30
0.0
 11
5.073000000000003
 21
7.583229073212255
 31
0.0
  0
LINE
  5
F5
330
1F
100
AcDbEntity
  8
DIAL
  6
CONTINUOUS
 62
     3
100
AcDbLine
 10
4.732704909609765
 20
7.348999999999998
 30
0.0
 11
5.073000000000003
 21
7.689295090390237
 31
0.0
  0
LINE
  5
F6
330
1F
100
AcDbEntity
  8
DIAL
  6
CONTINUOUS
 62
     3
100
AcDbLine
 10
4.626638892431784
 20
7.348999999999998
 30
0.0
 11
5.040638892431782
 21
7.762999999999996
 31
0.0
  0
LINE
  5
F7
330
1F
100
AcDbEntity
  8
DIAL
  6
CONTINUOUS
 62
     3
100
AcDbLine
 10
4.605000000000003
 20
7.4334271247462
 30
0.0
 11
4.9345728752538
 21
7.762999999999997
 31
0.0
  0
LINE
  5
F8
330
1F
100
AcDbEntity
  8
DIAL
  6
CONTINUOUS
 62
     3
100
AcDbLine
 10
4.605000000000004
 20
7.539493141924182
 30
0.0
 11
4.828506858075818
 21
7.762999999999998
 31
0.0
  0
LINE
  5
F9
330
1F
100
AcDbEntity
  8
DIAL
  6
CONTINUOUS
 62
     3
100
AcDbLine
 10
4.605000000000005
 20
7.645559159102166
 30
0.0
 11
4.722440840897835
 21
7.762999999999997
 31
0.0
  0
LINE
  5
FA
330
1F
100
AcDbEntity
  8
DIAL
  6
CONTINUOUS
 62
     3
100
AcDbLine
 10
4.605000000000003
 20
7.751625176280147
 30
0.0
 11
4.616374823719853
 21
7.762999999999998
 31
0.0
  0
LINE
  5
FB
330
1F
100
AcDbEntity
  8
DIAL
  6
CONTINUOUS
 62
     3
100
AcDbLine
 10
5.015547622084382
 20
7.348999999999996
 30
0.0
 11
5.073000000000003
 21
7.406452377915616
 31
0.0
  0
LINE
  5
FC
330
1F
100
AcDbEntity
  8
DIAL
  6
CONTINUOUS
 62
     3
100
AcDbLine
 10
4.9094816049064
 20
7.348999999999997
 30
0.0
 11
5.073000000000004
 21
7.512518395093599
 31
0.0
  0
LINE
  5
FD
330
1F
100
AcDbEntity
  8
DIAL
  6
CONTINUOUS
 62
     3
100
AcDbLine
 10
4.803415587728419
 20
7.348999999999997
 30
0.0
 11
5.073000000000004
 21
7.618584412271582
 31
0.0
  0
LINE
  5
FE
330
1F
100
AcDbEntity
  8
DIAL
  6
CONTINUOUS
 62
     3
100
AcDbLine
 10
4.697349570550438
 20
7.348999999999998
 30
0.0
 11
5.073000000000003
 21
7.724650429449564
 31
0.0
  0
LINE
  5
FF
330
1F
100
AcDbEntity
  8
DIAL
  6
CONTINUOUS
 62
     3
100
AcDbLine
 10
4.605000000000003
 20
7.362716446627545
 30
0.0
 11
5.005283553372454
 21
7.762999999999996
 31
0.0
  0
LINE
  5
100
330
1F
100
AcDbEntity
  8
DIAL
  6
CONTINUOUS
 62
     3
100
AcDbLine
 10
4.605000000000003
 20
7.468782463805528
 30
0.0
 11
4.899217536194472
 21
7.762999999999997
 31
0.0
  0
LINE
  5
101
330
1F
100
AcDbEntity
  8
DIAL
  6
CONTINUOUS
 62
     3
100
AcDbLine
 10
4.605000000000004
 20
7.574848480983511
 30
0.0
 11
4.793151519016491
 21
7.762999999999997
 31
0.0
  0
LINE
  5
102
330
1F
100
AcDbEntity
  8
DIAL
  6
CONTINUOUS
 62
     3
100
AcDbLine
 10
4.605000000000004
 20
7.680914498161492
 30
0.0
 11
4.687085501838507
 21
7.762999999999997
 31
0.0
  0
LINE
  5
103
330
1F
100
AcDbEntity
  8
LEADSCREW
  6
CONTINUOUS
 62
     7
100
AcDbLine
 10
5.544402961143722
 20
7.8425
 30
0.0
 11
5.548000000000003
 21
7.846097038856282
 31
0.0
  0
LINE
  5
104
330
1F
100
AcDbEntity
  8
LEADSCREW
  6
CONTINUOUS
 62
     7
100
AcDbLine
 10
5.367626265847084
 20
7.8425
 30
0.0
 11
5.525126265847083
 21
7.999999999999999
 31
0.0
  0
LINE
  5
105
330
1F
100
AcDbEntity
  8
LEADSCREW
  6
CONTINUOUS
 62
     7
100
AcDbLine
 10
5.190849570550447
 20
7.8425
 30
0.0
 11
5.348349570550446
 21
7.999999999999999
 31
0.0
  0
LINE
  5
106
330
1F
100
AcDbEntity
  8
LEADSCREW
  6
CONTINUOUS
 62
     7
100
AcDbLine
 10
5.122000000000003
 20
7.950427124746192
 30
0.0
 11
5.17157287525381
 21
7.999999999999998
 31
0.0
  0
LINE
  5
107
330
1F
100
AcDbEntity
  8
LEADSCREW
  6
CONTINUOUS
 62
     7
100
AcDbLine
 10
5.525126265847083
 20
7.999999999999999
 30
0.0
 11
5.548000000000003
 21
8.022873734152918
 31
0.0
  0
LINE
  5
108
330
1F
100
AcDbEntity
  8
LEADSCREW
  6
CONTINUOUS
 62
     7
100
AcDbLine
 10
5.348349570550446
 20
7.999999999999999
 30
0.0
 11
5.505849570550447
 21
8.157499999999998
 31
0.0
  0
LINE
  5
109
330
1F
100
AcDbEntity
  8
LEADSCREW
  6
CONTINUOUS
 62
     7
100
AcDbLine
 10
5.17157287525381
 20
7.999999999999998
 30
0.0
 11
5.32907287525381
 21
8.1575
 31
0.0
  0
LINE
  5
10A
330
1F
100
AcDbEntity
  8
LEADSCREW
  6
CONTINUOUS
 62
     7
100
AcDbLine
 10
5.122000000000003
 20
8.127203820042829
 30
0.0
 11
5.152296179957174
 21
8.1575
 31
0.0
  0
LINE
  5
10B
330
1F
100
AcDbEntity
  8
LEADSCREW
  6
CONTINUOUS
 62
     7
100
AcDbLine
 10
4.818019484660535
 20
7.999999999999999
 30
0.0
 11
4.931000000000002
 21
8.112980515339465
 31
0.0
  0
LINE
  5
10C
330
1F
100
AcDbEntity
  8
LEADSCREW
  6
CONTINUOUS
 62
     7
100
AcDbLine
 10
4.720000000000004
 20
8.078757210636101
 30
0.0
 11
4.846242789363898
 21
8.204999999999998
 31
0.0
  0
LINE
  5
10D
330
1F
100
AcDbEntity
  8
LEADSCREW
  6
CONTINUOUS
 62
     7
100
AcDbLine
 10
4.789796179957174
 20
7.794999999999999
 30
0.0
 11
4.931000000000003
 21
7.936203820042829
 31
0.0
  0
LINE
  5
10E
330
1F
100
AcDbEntity
  8
LEADSCREW
  6
CONTINUOUS
 62
     7
100
AcDbLine
 10
4.720000000000002
 20
7.901980515339466
 30
0.0
 11
4.818019484660535
 21
7.999999999999999
 31
0.0
  0
LINE
  5
10F
330
1F
100
AcDbEntity
  8
LEADSCREW
  6
CONTINUOUS
 62
     7
100
AcDbLine
 10
4.994796179957174
 20
8.0
 30
0.0
 11
5.073000000000003
 21
8.07820382004283
 31
0.0
  0
LINE
  5
110
330
1F
100
AcDbEntity
  8
LEADSCREW
  6
CONTINUOUS
 62
     7
100
AcDbLine
 10
4.931000000000002
 20
8.112980515339465
 30
0.0
 11
5.054519484660536
 21
8.236499999999999
 31
0.0
  0
LINE
  5
111
330
1F
100
AcDbEntity
  8
LEADSCREW
  6
CONTINUOUS
 62
     7
100
AcDbLine
 10
4.936072875253811
 20
7.764499999999999
 30
0.0
 11
5.073000000000003
 21
7.901427124746192
 31
0.0
  0
LINE
  5
112
330
1F
100
AcDbEntity
  8
LEADSCREW
  6
CONTINUOUS
 62
     7
100
AcDbLine
 10
4.931000000000003
 20
7.936203820042829
 30
0.0
 11
4.994796179957174
 21
8.0
 31
0.0
  0
LINE
  5
113
330
1F
100
AcDbEntity
  8
LEADSCREW
  6
CONTINUOUS
 62
     7
100
AcDbLine
 10
4.605000000000002
 20
7.786980515339465
 30
0.0
 11
4.720000000000002
 21
7.901980515339466
 31
0.0
  0
LINE
  5
114
330
1F
100
AcDbEntity
  8
LEADSCREW
  6
CONTINUOUS
 62
     7
100
AcDbLine
 10
4.605000000000002
 20
7.963757210636101
 30
0.0
 11
4.6412427893639
 21
8.0
 31
0.0
  0
LINE
  5
115
330
1F
100
AcDbEntity
  8
LEADSCREW
  6
CONTINUOUS
 62
     7
100
AcDbLine
 10
4.6412427893639
 20
8.0
 30
0.0
 11
4.720000000000004
 21
8.078757210636101
 31
0.0
  0
LINE
  5
116
330
1F
100
AcDbEntity
  8
LEADSCREW
  6
CONTINUOUS
 62
     7
100
AcDbLine
 10
4.605000000000002
 20
8.140533905932738
 30
0.0
 11
4.699966094067261
 21
8.235499999999998
 31
0.0
  0
LINE
  5
117
330
1F
100
AcDbEntity
  8
LEADSCREW
  6
CONTINUOUS
 62
     7
100
AcDbLine
 10
4.464466094067263
 20
8.0
 30
0.0
 11
4.600000000000004
 21
8.13553390593274
 31
0.0
  0
LINE
  5
118
330
1F
100
AcDbEntity
  8
LEADSCREW
  6
CONTINUOUS
 62
     7
100
AcDbLine
 10
4.287689398770626
 20
8.0
 30
0.0
 11
4.523189398770624
 21
8.235499999999998
 31
0.0
  0
LINE
  5
119
330
1F
100
AcDbEntity
  8
LEADSCREW
  6
CONTINUOUS
 62
     7
100
AcDbLine
 10
4.286000000000004
 20
8.175087296526013
 30
0.0
 11
4.346412703473988
 21
8.235499999999998
 31
0.0
  0
LINE
  5
11A
330
1F
100
AcDbEntity
  8
LEADSCREW
  6
CONTINUOUS
 62
     7
100
AcDbLine
 10
4.582519484660535
 20
7.764499999999998
 30
0.0
 11
4.600000000000003
 21
7.781980515339466
 31
0.0
  0
LINE
  5
11B
330
1F
100
AcDbEntity
  8
LEADSCREW
  6
CONTINUOUS
 62
     7
100
AcDbLine
 10
4.405742789363898
 20
7.764499999999998
 30
0.0
 11
4.600000000000004
 21
7.958757210636103
 31
0.0
  0
LINE
  5
11C
330
1F
100
AcDbEntity
  8
LEADSCREW
  6
CONTINUOUS
 62
     7
100
AcDbLine
 10
4.286000000000004
 20
7.821533905932741
 30
0.0
 11
4.464466094067263
 21
8.0
 31
0.0
  0
LINE
  5
11D
330
1F
100
AcDbEntity
  8
LEADSCREW
  6
CONTINUOUS
 62
     7
100
AcDbLine
 10
4.286000000000003
 20
7.998310601229376
 30
0.0
 11
4.287689398770626
 21
8.0
 31
0.0
  0
LINE
  5
11E
330
1F
100
AcDbEntity
  8
LEADSCREW
  6
CONTINUOUS
 62
     7
100
AcDbLine
 10
4.170000000000007
 20
8.059087296526017
 30
0.0
 11
4.266000000000002
 21
8.155087296526012
 31
0.0
  0
LINE
  5
11F
330
1F
100
AcDbEntity
  8
LEADSCREW
  6
CONTINUOUS
 62
     7
100
AcDbLine
 10
4.266000000000002
 20
8.155087296526012
 30
0.0
 11
4.286000000000004
 21
8.175087296526013
 31
0.0
  0
LINE
  5
120
330
1F
100
AcDbEntity
  8
LEADSCREW
  6
CONTINUOUS
 62
     7
100
AcDbLine
 10
4.266000000000002
 20
7.801533905932739
 30
0.0
 11
4.286000000000004
 21
7.821533905932741
 31
0.0
  0
LINE
  5
121
330
1F
100
AcDbEntity
  8
LEADSCREW
  6
CONTINUOUS
 62
     7
100
AcDbLine
 10
4.266000000000002
 20
7.978310601229376
 30
0.0
 11
4.286000000000003
 21
7.998310601229376
 31
0.0
  0
LINE
  5
122
330
1F
100
AcDbEntity
  8
LEADSCREW
  6
CONTINUOUS
 62
     7
100
AcDbLine
 10
4.228966094067261
 20
7.764499999999998
 30
0.0
 11
4.266000000000002
 21
7.801533905932739
 31
0.0
  0
LINE
  5
123
330
1F
100
AcDbEntity
  8
LEADSCREW
  6
CONTINUOUS
 62
     7
100
AcDbLine
 10
4.17000000000001
 20
7.882310601229383
 30
0.0
 11
4.266000000000002
 21
7.978310601229376
 31
0.0
  0
LINE
  5
124
330
1F
100
AcDbEntity
  8
LEADSCREW
  6
CONTINUOUS
 62
     7
100
AcDbLine
 10
4.120000000000003
 20
8.009087296526013
 30
0.0
 11
4.170000000000007
 21
8.059087296526017
 31
0.0
  0
LINE
  5
125
330
1F
100
AcDbEntity
  8
LEADSCREW
  6
CONTINUOUS
 62
     7
100
AcDbLine
 10
4.120000000000002
 20
8.18586399182265
 30
0.0
 11
4.169472475619349
 21
8.235336467441996
 31
0.0
  0
LINE
  5
126
330
1F
100
AcDbEntity
  8
LEADSCREW
  6
CONTINUOUS
 62
     7
100
AcDbLine
 10
4.120000000000002
 20
7.832310601229376
 30
0.0
 11
4.17000000000001
 21
7.882310601229383
 31
0.0
  0
LINE
  5
127
330
1F
100
AcDbEntity
  8
LEADSCREW
  6
CONTINUOUS
 62
     7
100
AcDbLine
 10
4.11091270347399
 20
8.0
 30
0.0
 11
4.120000000000003
 21
8.009087296526013
 31
0.0
  0
LINE
  5
128
330
1F
100
AcDbEntity
  8
LEADSCREW
  6
CONTINUOUS
 62
     7
100
AcDbLine
 10
4.000000000000001
 20
8.065863991822649
 30
0.0
 11
4.120000000000002
 21
8.18586399182265
 31
0.0
  0
LINE
  5
129
330
1F
100
AcDbEntity
  8
LEADSCREW
  6
CONTINUOUS
 62
     7
100
AcDbLine
 10
4.000000000000003
 20
8.242640687119287
 30
0.0
 11
4.030359312880717
 21
8.273000000000001
 31
0.0
  0
LINE
  5
12A
330
1F
100
AcDbEntity
  8
LEADSCREW
  6
CONTINUOUS
 62
     7
100
AcDbLine
 10
4.014689398770626
 20
7.727
 30
0.0
 11
4.120000000000002
 21
7.832310601229376
 31
0.0
  0
LINE
  5
12B
330
1F
100
AcDbEntity
  8
LEADSCREW
  6
CONTINUOUS
 62
     7
100
AcDbLine
 10
4.000000000000002
 20
7.889087296526012
 30
0.0
 11
4.11091270347399
 21
8.0
 31
0.0
  0
LINE
  5
12C
330
1F
100
AcDbEntity
  8
LEADSCREW
  6
CONTINUOUS
 62
     7
100
AcDbLine
 10
3.91691270347399
 20
7.806
 30
0.0
 11
4.000000000000004
 21
7.889087296526014
 31
0.0
  0
LINE
  5
12D
330
1F
100
AcDbEntity
  8
LEADSCREW
  6
CONTINUOUS
 62
     7
100
AcDbLine
 10
3.750000000000003
 20
7.81586399182265
 30
0.0
 11
3.934136008177353
 21
8.0
 31
0.0
  0
LINE
  5
12E
330
1F
100
AcDbEntity
  8
LEADSCREW
  6
CONTINUOUS
 62
     7
100
AcDbLine
 10
3.580359312880716
 20
7.823000000000001
 30
0.0
 11
3.757359312880715
 21
8.0
 31
0.0
  0
LINE
  5
12F
330
1F
100
AcDbEntity
  8
LEADSCREW
  6
CONTINUOUS
 62
     7
100
AcDbLine
 10
3.40358261758408
 20
7.823000000000001
 30
0.0
 11
3.580582617584079
 21
8.0
 31
0.0
  0
LINE
  5
130
330
1F
100
AcDbEntity
  8
LEADSCREW
  6
CONTINUOUS
 62
     7
100
AcDbLine
 10
3.226805922287443
 20
7.823000000000002
 30
0.0
 11
3.403805922287442
 21
8.0
 31
0.0
  0
LINE
  5
131
330
1F
100
AcDbEntity
  8
LEADSCREW
  6
CONTINUOUS
 62
     7
100
AcDbLine
 10
3.050029226990806
 20
7.823
 30
0.0
 11
3.227029226990805
 21
8.0
 31
0.0
  0
LINE
  5
132
330
1F
100
AcDbEntity
  8
LEADSCREW
  6
CONTINUOUS
 62
     7
100
AcDbLine
 10
2.873252531694169
 20
7.823
 30
0.0
 11
3.050252531694169
 21
8.0
 31
0.0
  0
LINE
  5
133
330
1F
100
AcDbEntity
  8
LEADSCREW
  6
CONTINUOUS
 62
     7
100
AcDbLine
 10
2.696475836397532
 20
7.823000000000001
 30
0.0
 11
2.873475836397531
 21
8.0
 31
0.0
  0
LINE
  5
134
330
1F
100
AcDbEntity
  8
LEADSCREW
  6
CONTINUOUS
 62
     7
100
AcDbLine
 10
2.519699141100895
 20
7.823000000000001
 30
0.0
 11
2.696699141100894
 21
8.0
 31
0.0
  0
LINE
  5
135
330
1F
100
AcDbEntity
  8
LEADSCREW
  6
CONTINUOUS
 62
     7
100
AcDbLine
 10
2.342922445804258
 20
7.823000000000002
 30
0.0
 11
2.519922445804257
 21
8.0
 31
0.0
  0
LINE
  5
136
330
1F
100
AcDbEntity
  8
LEADSCREW
  6
CONTINUOUS
 62
     7
100
AcDbLine
 10
2.166145750507621
 20
7.823
 30
0.0
 11
2.343145750507621
 21
8.0
 31
0.0
  0
LINE
  5
137
330
1F
100
AcDbEntity
  8
LEADSCREW
  6
CONTINUOUS
 62
     7
100
AcDbLine
 10
1.989369055210985
 20
7.823
 30
0.0
 11
2.166369055210984
 21
8.0
 31
0.0
  0
LINE
  5
138
330
1F
100
AcDbEntity
  8
LEADSCREW
  6
CONTINUOUS
 62
     7
100
AcDbLine
 10
1.812592359914347
 20
7.823000000000001
 30
0.0
 11
1.989592359914346
 21
8.0
 31
0.0
  0
LINE
  5
139
330
1F
100
AcDbEntity
  8
LEADSCREW
  6
CONTINUOUS
 62
     7
100
AcDbLine
 10
1.635815664617711
 20
7.823000000000001
 30
0.0
 11
1.81281566461771
 21
8.0
 31
0.0
  0
LINE
  5
13A
330
1F
100
AcDbEntity
  8
LEADSCREW
  6
CONTINUOUS
 62
     7
100
AcDbLine
 10
1.459038969321073
 20
7.823000000000002
 30
0.0
 11
1.636038969321073
 21
8.0
 31
0.0
  0
LINE
  5
13B
330
1F
100
AcDbEntity
  8
LEADSCREW
  6
CONTINUOUS
 62
     7
100
AcDbLine
 10
1.282262274024437
 20
7.823
 30
0.0
 11
1.459262274024436
 21
8.0
 31
0.0
  0
LINE
  5
13C
330
1F
100
AcDbEntity
  8
LEADSCREW
  6
CONTINUOUS
 62
     7
100
AcDbLine
 10
1.1054855787278
 20
7.823
 30
0.0
 11
1.2824855787278
 21
8.0
 31
0.0
  0
LINE
  5
13D
330
1F
100
AcDbEntity
  8
LEADSCREW
  6
CONTINUOUS
 62
     7
100
AcDbLine
 10
0.9287088834311635
 20
7.823000000000001
 30
0.0
 11
1.105708883431162
 21
8.0
 31
0.0
  0
LINE
  5
13E
330
1F
100
AcDbEntity
  8
LEADSCREW
  6
CONTINUOUS
 62
     7
100
AcDbLine
 10
0.7519321881345272
 20
7.823000000000001
 30
0.0
 11
0.9289321881345259
 21
8.0
 31
0.0
  0
LINE
  5
13F
330
1F
100
AcDbEntity
  8
LEADSCREW
  6
CONTINUOUS
 62
     7
100
AcDbLine
 10
0.7500000000000031
 20
7.997844507162113
 30
0.0
 11
0.7521554928378893
 21
8.0
 31
0.0
  0
LINE
  5
140
330
1F
100
AcDbEntity
  8
LEADSCREW
  6
CONTINUOUS
 62
     7
100
AcDbLine
 10
3.934136008177353
 20
8.0
 30
0.0
 11
4.000000000000003
 21
8.06586399182265
 31
0.0
  0
LINE
  5
141
330
1F
100
AcDbEntity
  8
LEADSCREW
  6
CONTINUOUS
 62
     7
100
AcDbLine
 10
3.757359312880715
 20
8.0
 30
0.0
 11
3.951359312880717
 21
8.194000000000002
 31
0.0
  0
LINE
  5
142
330
1F
100
AcDbEntity
  8
LEADSCREW
  6
CONTINUOUS
 62
     7
100
AcDbLine
 10
3.580582617584079
 20
8.0
 30
0.0
 11
3.77458261758408
 21
8.194000000000002
 31
0.0
  0
LINE
  5
143
330
1F
100
AcDbEntity
  8
LEADSCREW
  6
CONTINUOUS
 62
     7
100
AcDbLine
 10
3.403805922287442
 20
8.0
 30
0.0
 11
3.580805922287442
 21
8.177000000000001
 31
0.0
  0
LINE
  5
144
330
1F
100
AcDbEntity
  8
LEADSCREW
  6
CONTINUOUS
 62
     7
100
AcDbLine
 10
3.227029226990805
 20
8.0
 30
0.0
 11
3.404029226990806
 21
8.177000000000001
 31
0.0
  0
LINE
  5
145
330
1F
100
AcDbEntity
  8
LEADSCREW
  6
CONTINUOUS
 62
     7
100
AcDbLine
 10
3.050252531694169
 20
8.0
 30
0.0
 11
3.227252531694168
 21
8.176999999999999
 31
0.0
  0
LINE
  5
146
330
1F
100
AcDbEntity
  8
LEADSCREW
  6
CONTINUOUS
 62
     7
100
AcDbLine
 10
2.873475836397531
 20
8.0
 30
0.0
 11
3.050475836397531
 21
8.176999999999999
 31
0.0
  0
LINE
  5
147
330
1F
100
AcDbEntity
  8
LEADSCREW
  6
CONTINUOUS
 62
     7
100
AcDbLine
 10
2.696699141100894
 20
8.0
 30
0.0
 11
2.873699141100895
 21
8.176999999999999
 31
0.0
  0
LINE
  5
148
330
1F
100
AcDbEntity
  8
LEADSCREW
  6
CONTINUOUS
 62
     7
100
AcDbLine
 10
2.519922445804257
 20
8.0
 30
0.0
 11
2.696922445804258
 21
8.177000000000001
 31
0.0
  0
LINE
  5
149
330
1F
100
AcDbEntity
  8
LEADSCREW
  6
CONTINUOUS
 62
     7
100
AcDbLine
 10
2.343145750507621
 20
8.0
 30
0.0
 11
2.520145750507621
 21
8.177000000000001
 31
0.0
  0
LINE
  5
14A
330
1F
100
AcDbEntity
  8
LEADSCREW
  6
CONTINUOUS
 62
     7
100
AcDbLine
 10
2.166369055210984
 20
8.0
 30
0.0
 11
2.343369055210984
 21
8.176999999999999
 31
0.0
  0
LINE
  5
14B
330
1F
100
AcDbEntity
  8
LEADSCREW
  6
CONTINUOUS
 62
     7
100
AcDbLine
 10
1.989592359914346
 20
8.0
 30
0.0
 11
2.166592359914347
 21
8.176999999999999
 31
0.0
  0
LINE
  5
14C
330
1F
100
AcDbEntity
  8
LEADSCREW
  6
CONTINUOUS
 62
     7
100
AcDbLine
 10
1.81281566461771
 20
8.0
 30
0.0
 11
1.98981566461771
 21
8.176999999999999
 31
0.0
  0
LINE
  5
14D
330
1F
100
AcDbEntity
  8
LEADSCREW
  6
CONTINUOUS
 62
     7
100
AcDbLine
 10
1.636038969321073
 20
8.0
 30
0.0
 11
1.813038969321073
 21
8.177000000000001
 31
0.0
  0
LINE
  5
14E
330
1F
100
AcDbEntity
  8
LEADSCREW
  6
CONTINUOUS
 62
     7
100
AcDbLine
 10
1.459262274024436
 20
8.0
 30
0.0
 11
1.636262274024437
 21
8.177000000000001
 31
0.0
  0
LINE
  5
14F
330
1F
100
AcDbEntity
  8
LEADSCREW
  6
CONTINUOUS
 62
     7
100
AcDbLine
 10
1.2824855787278
 20
8.0
 30
0.0
 11
1.4594855787278
 21
8.177000000000001
 31
0.0
  0
LINE
  5
150
330
1F
100
AcDbEntity
  8
LEADSCREW
  6
CONTINUOUS
 62
     7
100
AcDbLine
 10
1.105708883431162
 20
8.0
 30
0.0
 11
1.282708883431163
 21
8.177000000000001
 31
0.0
  0
LINE
  5
151
330
1F
100
AcDbEntity
  8
LEADSCREW
  6
CONTINUOUS
 62
     7
100
AcDbLine
 10
0.9289321881345259
 20
8.0
 30
0.0
 11
1.105932188134527
 21
8.177000000000001
 31
0.0
  0
LINE
  5
152
330
1F
100
AcDbEntity
  8
LEADSCREW
  6
CONTINUOUS
 62
     7
100
AcDbLine
 10
0.7521554928378893
 20
8.0
 30
0.0
 11
0.9291554928378896
 21
8.177000000000001
 31
0.0
  0
LINE
  5
153
330
1F
100
AcDbEntity
  8
LEADSCREW
  6
CONTINUOUS
 62
     7
100
AcDbLine
 10
0.7500000000000018
 20
8.17462120245875
 30
0.0
 11
0.7523787975412528
 21
8.177000000000001
 31
0.0
  0
LINE
  5
154
330
1F
100
AcDbEntity
  8
BEARING
  6
CONTINUOUS
 62
     5
100
AcDbLine
 10
4.594400076889267
 20
8.235999999999995
 30
0.0
 11
4.600000000000003
 21
8.241599923110731
 31
0.0
  0
LINE
  5
155
330
1F
100
AcDbEntity
  8
BEARING
  6
CONTINUOUS
 62
     5
100
AcDbLine
 10
4.559044737829942
 20
8.235999999999997
 30
0.0
 11
4.600000000000005
 21
8.27695526217006
 31
0.0
  0
LINE
  5
156
330
1F
100
AcDbEntity
  8
BEARING
  6
CONTINUOUS
 62
     5
100
AcDbLine
 10
4.523689398770613
 20
8.235999999999997
 30
0.0
 11
4.600000000000005
 21
8.312310601229388
 31
0.0
  0
LINE
  5
157
330
1F
100
AcDbEntity
  8
BEARING
  6
CONTINUOUS
 62
     5
100
AcDbLine
 10
4.488334059711285
 20
8.235999999999997
 30
0.0
 11
4.569834059711291
 21
8.3175
 31
0.0
  0
LINE
  5
158
330
1F
100
AcDbEntity
  8
BEARING
  6
CONTINUOUS
 62
     5
100
AcDbLine
 10
4.45297872065196
 20
8.235999999999997
 30
0.0
 11
4.534478720651963
 21
8.3175
 31
0.0
  0
LINE
  5
159
330
1F
100
AcDbEntity
  8
BEARING
  6
CONTINUOUS
 62
     5
100
AcDbLine
 10
4.417623381592632
 20
8.235999999999997
 30
0.0
 11
4.499123381592634
 21
8.3175
 31
0.0
  0
LINE
  5
15A
330
1F
100
AcDbEntity
  8
BEARING
  6
CONTINUOUS
 62
     5
100
AcDbLine
 10
4.382268042533303
 20
8.235999999999997
 30
0.0
 11
4.463768042533307
 21
8.3175
 31
0.0
  0
LINE
  5
15B
330
1F
100
AcDbEntity
  8
BEARING
  6
CONTINUOUS
 62
     5
100
AcDbLine
 10
4.346912703473978
 20
8.235999999999997
 30
0.0
 11
4.42841270347398
 21
8.3175
 31
0.0
  0
LINE
  5
15C
330
1F
100
AcDbEntity
  8
BEARING
  6
CONTINUOUS
 62
     5
100
AcDbLine
 10
4.31155736441465
 20
8.235999999999997
 30
0.0
 11
4.393057364414654
 21
8.3175
 31
0.0
  0
LINE
  5
15D
330
1F
100
AcDbEntity
  8
BEARING
  6
CONTINUOUS
 62
     5
100
AcDbLine
 10
4.286000000000004
 20
8.245797974644679
 30
0.0
 11
4.357702025355327
 21
8.3175
 31
0.0
  0
LINE
  5
15E
330
1F
100
AcDbEntity
  8
BEARING
  6
CONTINUOUS
 62
     5
100
AcDbLine
 10
4.286000000000004
 20
8.281153313704004
 30
0.0
 11
4.322346686295998
 21
8.3175
 31
0.0
  0
LINE
  5
15F
330
1F
100
AcDbEntity
  8
BEARING
  6
CONTINUOUS
 62
     5
100
AcDbLine
 10
4.286000000000005
 20
8.316508652763333
 30
0.0
 11
4.28699134723667
 21
8.3175
 31
0.0
  0
LINE
  5
160
330
1F
100
AcDbEntity
  8
BEARING
  6
CONTINUOUS
 62
     5
100
AcDbLine
 10
4.600000000000002
 20
8.304198756654491
 30
0.0
 11
4.586698756654492
 21
8.317500000000002
 31
0.0
  0
LINE
  5
161
330
1F
100
AcDbEntity
  8
BEARING
  6
CONTINUOUS
 62
     5
100
AcDbLine
 10
4.600000000000002
 20
8.268843417595165
 30
0.0
 11
4.551343417595163
 21
8.317500000000004
 31
0.0
  0
LINE
  5
162
330
1F
100
AcDbEntity
  8
BEARING
  6
CONTINUOUS
 62
     5
100
AcDbLine
 10
4.597488078535842
 20
8.235999999999997
 30
0.0
 11
4.515988078535836
 21
8.317500000000002
 31
0.0
  0
LINE
  5
163
330
1F
100
AcDbEntity
  8
BEARING
  6
CONTINUOUS
 62
     5
100
AcDbLine
 10
4.562132739476512
 20
8.235999999999997
 30
0.0
 11
4.480632739476508
 21
8.317500000000002
 31
0.0
  0
LINE
  5
164
330
1F
100
AcDbEntity
  8
BEARING
  6
CONTINUOUS
 62
     5
100
AcDbLine
 10
4.526777400417185
 20
8.235999999999998
 30
0.0
 11
4.445277400417181
 21
8.317500000000002
 31
0.0
  0
LINE
  5
165
330
1F
100
AcDbEntity
  8
BEARING
  6
CONTINUOUS
 62
     5
100
AcDbLine
 10
4.491422061357858
 20
8.235999999999998
 30
0.0
 11
4.409922061357853
 21
8.317500000000002
 31
0.0
  0
LINE
  5
166
330
1F
100
AcDbEntity
  8
BEARING
  6
CONTINUOUS
 62
     5
100
AcDbLine
 10
4.456066722298529
 20
8.235999999999997
 30
0.0
 11
4.374566722298525
 21
8.317500000000002
 31
0.0
  0
LINE
  5
167
330
1F
100
AcDbEntity
  8
BEARING
  6
CONTINUOUS
 62
     5
100
AcDbLine
 10
4.420711383239201
 20
8.235999999999998
 30
0.0
 11
4.339211383239197
 21
8.317500000000002
 31
0.0
  0
LINE
  5
168
330
1F
100
AcDbEntity
  8
BEARING
  6
CONTINUOUS
 62
     5
100
AcDbLine
 10
4.385356044179874
 20
8.235999999999998
 30
0.0
 11
4.30385604417987
 21
8.317500000000002
 31
0.0
  0
LINE
  5
169
330
1F
100
AcDbEntity
  8
BEARING
  6
CONTINUOUS
 62
     5
100
AcDbLine
 10
4.350000705120546
 20
8.235999999999997
 30
0.0
 11
4.286000000000002
 21
8.300000705120542
 31
0.0
  0
LINE
  5
16A
330
1F
100
AcDbEntity
  8
BEARING
  6
CONTINUOUS
 62
     5
100
AcDbLine
 10
4.314645366061218
 20
8.235999999999998
 30
0.0
 11
4.286000000000001
 21
8.264645366061214
 31
0.0
  0
LINE
  5
16B
330
1F
100
AcDbEntity
  8
BEARING
  6
CONTINUOUS
 62
     5
100
AcDbLine
 10
4.568230162779182
 20
7.679499999999998
 30
0.0
 11
4.600000000000004
 21
7.711269837220819
 31
0.0
  0
LINE
  5
16C
330
1F
100
AcDbEntity
  8
BEARING
  6
CONTINUOUS
 62
     5
100
AcDbLine
 10
4.532874823719855
 20
7.679499999999998
 30
0.0
 11
4.600000000000004
 21
7.746625176280146
 31
0.0
  0
LINE
  5
16D
330
1F
100
AcDbEntity
  8
BEARING
  6
CONTINUOUS
 62
     5
100
AcDbLine
 10
4.497519484660528
 20
7.679499999999999
 30
0.0
 11
4.582019484660524
 21
7.763999999999996
 31
0.0
  0
LINE
  5
16E
330
1F
100
AcDbEntity
  8
BEARING
  6
CONTINUOUS
 62
     5
100
AcDbLine
 10
4.4621641456012
 20
7.679499999999998
 30
0.0
 11
4.546664145601197
 21
7.763999999999996
 31
0.0
  0
LINE
  5
16F
330
1F
100
AcDbEntity
  8
BEARING
  6
CONTINUOUS
 62
     5
100
AcDbLine
 10
4.426808806541873
 20
7.679499999999998
 30
0.0
 11
4.51130880654187
 21
7.763999999999994
 31
0.0
  0
LINE
  5
170
330
1F
100
AcDbEntity
  8
BEARING
  6
CONTINUOUS
 62
     5
100
AcDbLine
 10
4.391453467482546
 20
7.679499999999998
 30
0.0
 11
4.475953467482544
 21
7.763999999999996
 31
0.0
  0
LINE
  5
171
330
1F
100
AcDbEntity
  8
BEARING
  6
CONTINUOUS
 62
     5
100
AcDbLine
 10
4.356098128423218
 20
7.679499999999997
 30
0.0
 11
4.440598128423215
 21
7.763999999999995
 31
0.0
  0
LINE
  5
172
330
1F
100
AcDbEntity
  8
BEARING
  6
CONTINUOUS
 62
     5
100
AcDbLine
 10
4.320742789363891
 20
7.679499999999998
 30
0.0
 11
4.405242789363888
 21
7.763999999999995
 31
0.0
  0
LINE
  5
173
330
1F
100
AcDbEntity
  8
BEARING
  6
CONTINUOUS
 62
     5
100
AcDbLine
 10
4.286000000000004
 20
7.680112549695436
 30
0.0
 11
4.369887450304561
 21
7.763999999999994
 31
0.0
  0
LINE
  5
174
330
1F
100
AcDbEntity
  8
BEARING
  6
CONTINUOUS
 62
     5
100
AcDbLine
 10
4.286000000000004
 20
7.715467888754766
 30
0.0
 11
4.334532111245235
 21
7.763999999999995
 31
0.0
  0
LINE
  5
175
330
1F
100
AcDbEntity
  8
BEARING
  6
CONTINUOUS
 62
     5
100
AcDbLine
 10
4.286000000000004
 20
7.750823227814092
 30
0.0
 11
4.299176772185908
 21
7.763999999999995
 31
0.0
  0
LINE
  5
176
330
1F
100
AcDbEntity
  8
BEARING
  6
CONTINUOUS
 62
     5
100
AcDbLine
 10
4.600000000000001
 20
7.738513331705253
 30
0.0
 11
4.574513331705257
 21
7.763999999999997
 31
0.0
  0
LINE
  5
177
330
1F
100
AcDbEntity
  8
BEARING
  6
CONTINUOUS
 62
     5
100
AcDbLine
 10
4.600000000000002
 20
7.703157992645925
 30
0.0
 11
4.53915799264593
 21
7.763999999999997
 31
0.0
  0
LINE
  5
178
330
1F
100
AcDbEntity
  8
BEARING
  6
CONTINUOUS
 62
     5
100
AcDbLine
 10
4.588302653586599
 20
7.679500000000001
 30
0.0
 11
4.503802653586602
 21
7.763999999999998
 31
0.0
  0
LINE
  5
179
330
1F
100
AcDbEntity
  8
BEARING
  6
CONTINUOUS
 62
     5
100
AcDbLine
 10
4.55294731452727
 20
7.6795
 30
0.0
 11
4.468447314527273
 21
7.763999999999997
 31
0.0
  0
LINE
  5
17A
330
1F
100
AcDbEntity
  8
BEARING
  6
CONTINUOUS
 62
     5
100
AcDbLine
 10
4.517591975467943
 20
7.6795
 30
0.0
 11
4.433091975467946
 21
7.763999999999997
 31
0.0
  0
LINE
  5
17B
330
1F
100
AcDbEntity
  8
BEARING
  6
CONTINUOUS
 62
     5
100
AcDbLine
 10
4.482236636408615
 20
7.6795
 30
0.0
 11
4.397736636408619
 21
7.763999999999997
 31
0.0
  0
LINE
  5
17C
330
1F
100
AcDbEntity
  8
BEARING
  6
CONTINUOUS
 62
     5
100
AcDbLine
 10
4.446881297349286
 20
7.6795
 30
0.0
 11
4.362381297349291
 21
7.763999999999996
 31
0.0
  0
LINE
  5
17D
330
1F
100
AcDbEntity
  8
BEARING
  6
CONTINUOUS
 62
     5
100
AcDbLine
 10
4.411525958289959
 20
7.6795
 30
0.0
 11
4.327025958289962
 21
7.763999999999997
 31
0.0
  0
LINE
  5
17E
330
1F
100
AcDbEntity
  8
BEARING
  6
CONTINUOUS
 62
     5
100
AcDbLine
 10
4.376170619230632
 20
7.679500000000001
 30
0.0
 11
4.291670619230635
 21
7.763999999999997
 31
0.0
  0
LINE
  5
17F
330
1F
100
AcDbEntity
  8
BEARING
  6
CONTINUOUS
 62
     5
100
AcDbLine
 10
4.340815280171303
 20
7.6795
 30
0.0
 11
4.286000000000002
 21
7.734315280171301
 31
0.0
  0
LINE
  5
180
330
1F
100
AcDbEntity
  8
BEARING
  6
CONTINUOUS
 62
     5
100
AcDbLine
 10
4.305459941111975
 20
7.6795
 30
0.0
 11
4.286000000000002
 21
7.698959941111974
 31
0.0
  0
LINE
  5
181
330
1F
100
AcDbEntity
  8
BEARING
  6
CONTINUOUS
 62
     5
100
AcDbLine
 10
4.583717536194474
 20
7.447499999999998
 30
0.0
 11
4.600000000000004
 21
7.46378246380553
 31
0.0
  0
LINE
  5
182
330
1F
100
AcDbEntity
  8
BEARING
  6
CONTINUOUS
 62
     5
100
AcDbLine
 10
4.548362197135148
 20
7.447499999999998
 30
0.0
 11
4.600000000000004
 21
7.499137802864857
 31
0.0
  0
LINE
  5
183
330
1F
100
AcDbEntity
  8
BEARING
  6
CONTINUOUS
 62
     5
100
AcDbLine
 10
4.51300685807582
 20
7.447499999999998
 30
0.0
 11
4.573006858075819
 21
7.507499999999999
 31
0.0
  0
LINE
  5
184
330
1F
100
AcDbEntity
  8
BEARING
  6
CONTINUOUS
 62
     5
100
AcDbLine
 10
4.477651519016492
 20
7.447499999999998
 30
0.0
 11
4.537651519016492
 21
7.507499999999999
 31
0.0
  0
LINE
  5
185
330
1F
100
AcDbEntity
  8
BEARING
  6
CONTINUOUS
 62
     5
100
AcDbLine
 10
4.442296179957166
 20
7.4475
 30
0.0
 11
4.502296179957165
 21
7.507499999999999
 31
0.0
  0
LINE
  5
186
330
1F
100
AcDbEntity
  8
BEARING
  6
CONTINUOUS
 62
     5
100
AcDbLine
 10
4.406940840897838
 20
7.447499999999998
 30
0.0
 11
4.466940840897838
 21
7.507499999999998
 31
0.0
  0
LINE
  5
187
330
1F
100
AcDbEntity
  8
BEARING
  6
CONTINUOUS
 62
     5
100
AcDbLine
 10
4.371585501838511
 20
7.447499999999998
 30
0.0
 11
4.431585501838511
 21
7.507499999999998
 31
0.0
  0
LINE
  5
188
330
1F
100
AcDbEntity
  8
BEARING
  6
CONTINUOUS
 62
     5
100
AcDbLine
 10
4.336230162779183
 20
7.447499999999998
 30
0.0
 11
4.396230162779183
 21
7.507499999999998
 31
0.0
  0
LINE
  5
189
330
1F
100
AcDbEntity
  8
BEARING
  6
CONTINUOUS
 62
     5
100
AcDbLine
 10
4.300874823719857
 20
7.447499999999999
 30
0.0
 11
4.360874823719855
 21
7.507499999999997
 31
0.0
  0
LINE
  5
18A
330
1F
100
AcDbEntity
  8
BEARING
  6
CONTINUOUS
 62
     5
100
AcDbLine
 10
4.286000000000004
 20
7.467980515339474
 30
0.0
 11
4.325519484660529
 21
7.507499999999998
 31
0.0
  0
LINE
  5
18B
330
1F
100
AcDbEntity
  8
BEARING
  6
CONTINUOUS
 62
     5
100
AcDbLine
 10
4.286000000000004
 20
7.5033358543988
 30
0.0
 11
4.290164145601202
 21
7.507499999999998
 31
0.0
  0
LINE
  5
18C
330
1F
100
AcDbEntity
  8
BEARING
  6
CONTINUOUS
 62
     5
100
AcDbLine
 10
4.600000000000002
 20
7.491025958289963
 30
0.0
 11
4.583525958289964
 21
7.507500000000001
 31
0.0
  0
LINE
  5
18D
330
1F
100
AcDbEntity
  8
BEARING
  6
CONTINUOUS
 62
     5
100
AcDbLine
 10
4.600000000000003
 20
7.455670619230635
 30
0.0
 11
4.548170619230637
 21
7.5075
 31
0.0
  0
LINE
  5
18E
330
1F
100
AcDbEntity
  8
BEARING
  6
CONTINUOUS
 62
     5
100
AcDbLine
 10
4.572815280171309
 20
7.447499999999999
 30
0.0
 11
4.512815280171309
 21
7.507500000000001
 31
0.0
  0
LINE
  5
18F
330
1F
100
AcDbEntity
  8
BEARING
  6
CONTINUOUS
 62
     5
100
AcDbLine
 10
4.537459941111982
 20
7.4475
 30
0.0
 11
4.47745994111198
 21
7.507500000000001
 31
0.0
  0
LINE
  5
190
330
1F
100
AcDbEntity
  8
BEARING
  6
CONTINUOUS
 62
     5
100
AcDbLine
 10
4.502104602052654
 20
7.4475
 30
0.0
 11
4.442104602052653
 21
7.507500000000001
 31
0.0
  0
LINE
  5
191
330
1F
100
AcDbEntity
  8
BEARING
  6
CONTINUOUS
 62
     5
100
AcDbLine
 10
4.466749262993325
 20
7.447499999999999
 30
0.0
 11
4.406749262993324
 21
7.507500000000001
 31
0.0
  0
LINE
  5
192
330
1F
100
AcDbEntity
  8
BEARING
  6
CONTINUOUS
 62
     5
100
AcDbLine
 10
4.431393923933998
 20
7.4475
 30
0.0
 11
4.371393923933997
 21
7.507500000000001
 31
0.0
  0
LINE
  5
193
330
1F
100
AcDbEntity
  8
BEARING
  6
CONTINUOUS
 62
     5
100
AcDbLine
 10
4.39603858487467
 20
7.4475
 30
0.0
 11
4.336038584874669
 21
7.507500000000001
 31
0.0
  0
LINE
  5
194
330
1F
100
AcDbEntity
  8
BEARING
  6
CONTINUOUS
 62
     5
100
AcDbLine
 10
4.360683245815342
 20
7.4475
 30
0.0
 11
4.30068324581534
 21
7.507500000000001
 31
0.0
  0
LINE
  5
195
330
1F
100
AcDbEntity
  8
BEARING
  6
CONTINUOUS
 62
     5
100
AcDbLine
 10
4.325327906756014
 20
7.4475
 30
0.0
 11
4.286000000000003
 21
7.486827906756011
 31
0.0
  0
LINE
  5
196
330
1F
100
AcDbEntity
  8
BEARING
  6
CONTINUOUS
 62
     5
100
AcDbLine
 10
4.289972567696686
 20
7.4475
 30
0.0
 11
4.286000000000003
 21
7.451472567696684
 31
0.0
  0
LINE
  5
197
330
1F
100
AcDbEntity
  8
BEARING
  6
CONTINUOUS
 62
     5
100
AcDbLine
 10
4.56505736441465
 20
8.489499999999997
 30
0.0
 11
4.600000000000004
 21
8.524442635585351
 31
0.0
  0
LINE
  5
198
330
1F
100
AcDbEntity
  8
BEARING
  6
CONTINUOUS
 62
     5
100
AcDbLine
 10
4.529702025355324
 20
8.489499999999999
 30
0.0
 11
4.589702025355325
 21
8.5495
 31
0.0
  0
LINE
  5
199
330
1F
100
AcDbEntity
  8
BEARING
  6
CONTINUOUS
 62
     5
100
AcDbLine
 10
4.494346686295997
 20
8.489499999999999
 30
0.0
 11
4.554346686295997
 21
8.5495
 31
0.0
  0
LINE
  5
19A
330
1F
100
AcDbEntity
  8
BEARING
  6
CONTINUOUS
 62
     5
100
AcDbLine
 10
4.458991347236669
 20
8.489499999999999
 30
0.0
 11
4.51899134723667
 21
8.5495
 31
0.0
  0
LINE
  5
19B
330
1F
100
AcDbEntity
  8
BEARING
  6
CONTINUOUS
 62
     5
100
AcDbLine
 10
4.423636008177343
 20
8.489499999999999
 30
0.0
 11
4.483636008177342
 21
8.5495
 31
0.0
  0
LINE
  5
19C
330
1F
100
AcDbEntity
  8
BEARING
  6
CONTINUOUS
 62
     5
100
AcDbLine
 10
4.388280669118015
 20
8.489499999999997
 30
0.0
 11
4.448280669118017
 21
8.5495
 31
0.0
  0
LINE
  5
19D
330
1F
100
AcDbEntity
  8
BEARING
  6
CONTINUOUS
 62
     5
100
AcDbLine
 10
4.352925330058687
 20
8.489499999999997
 30
0.0
 11
4.412925330058688
 21
8.5495
 31
0.0
  0
LINE
  5
19E
330
1F
100
AcDbEntity
  8
BEARING
  6
CONTINUOUS
 62
     5
100
AcDbLine
 10
4.31756999099936
 20
8.489499999999997
 30
0.0
 11
4.377569990999361
 21
8.5495
 31
0.0
  0
LINE
  5
19F
330
1F
100
AcDbEntity
  8
BEARING
  6
CONTINUOUS
 62
     5
100
AcDbLine
 10
4.286000000000005
 20
8.49328534805997
 30
0.0
 11
4.342214651940035
 21
8.5495
 31
0.0
  0
LINE
  5
1A0
330
1F
100
AcDbEntity
  8
BEARING
  6
CONTINUOUS
 62
     5
100
AcDbLine
 10
4.286000000000005
 20
8.528640687119297
 30
0.0
 11
4.306859312880708
 21
8.5495
 31
0.0
  0
LINE
  5
1A1
330
1F
100
AcDbEntity
  8
BEARING
  6
CONTINUOUS
 62
     5
100
AcDbLine
 10
4.600000000000003
 20
8.516330791010457
 30
0.0
 11
4.566830791010459
 21
8.549500000000001
 31
0.0
  0
LINE
  5
1A2
330
1F
100
AcDbEntity
  8
BEARING
  6
CONTINUOUS
 62
     5
100
AcDbLine
 10
4.59147545195113
 20
8.489500000000001
 30
0.0
 11
4.53147545195113
 21
8.5495
 31
0.0
  0
LINE
  5
1A3
330
1F
100
AcDbEntity
  8
BEARING
  6
CONTINUOUS
 62
     5
100
AcDbLine
 10
4.556120112891803
 20
8.489500000000001
 30
0.0
 11
4.496120112891802
 21
8.549500000000001
 31
0.0
  0
LINE
  5
1A4
330
1F
100
AcDbEntity
  8
BEARING
  6
CONTINUOUS
 62
     5
100
AcDbLine
 10
4.520764773832475
 20
8.489500000000001
 30
0.0
 11
4.460764773832475
 21
8.549500000000001
 31
0.0
  0
LINE
  5
1A5
330
1F
100
AcDbEntity
  8
BEARING
  6
CONTINUOUS
 62
     5
100
AcDbLine
 10
4.485409434773147
 20
8.489500000000001
 30
0.0
 11
4.425409434773146
 21
8.549500000000001
 31
0.0
  0
LINE
  5
1A6
330
1F
100
AcDbEntity
  8
BEARING
  6
CONTINUOUS
 62
     5
100
AcDbLine
 10
4.450054095713819
 20
8.489500000000001
 30
0.0
 11
4.390054095713819
 21
8.549500000000001
 31
0.0
  0
LINE
  5
1A7
330
1F
100
AcDbEntity
  8
BEARING
  6
CONTINUOUS
 62
     5
100
AcDbLine
 10
4.414698756654491
 20
8.489500000000001
 30
0.0
 11
4.354698756654491
 21
8.549500000000001
 31
0.0
  0
LINE
  5
1A8
330
1F
100
AcDbEntity
  8
BEARING
  6
CONTINUOUS
 62
     5
100
AcDbLine
 10
4.379343417595163
 20
8.489500000000001
 30
0.0
 11
4.319343417595163
 21
8.549500000000001
 31
0.0
  0
LINE
  5
1A9
330
1F
100
AcDbEntity
  8
BEARING
  6
CONTINUOUS
 62
     5
100
AcDbLine
 10
4.343988078535836
 20
8.489500000000001
 30
0.0
 11
4.286000000000004
 21
8.547488078535833
 31
0.0
  0
LINE
  5
1AA
330
1F
100
AcDbEntity
  8
BEARING
  6
CONTINUOUS
 62
     5
100
AcDbLine
 10
4.308632739476507
 20
8.489500000000001
 30
0.0
 11
4.286000000000004
 21
8.512132739476506
 31
0.0
  0
LINE
  5
1AB
330
1F
100
AcDbEntity
  8
BEARINGHOUSING
  6
CENTER
 62
     7
100
AcDbLine
 10
1.999999537112428
 20
2.999999969011942
 30
0.0
 11
6.499999537112437
 21
2.999999969011941
 31
0.0
  0
LWPOLYLINE
  5
1AC
330
1F
100
AcDbEntity
  8
HANDLEWASHER
  6
CONTINUOUS
 62
   140
100
AcDbPolyline
 90
        5
 70
     0
 43
0.0
 10
5.073240183250473
 20
8.319793967235513
 10
5.273240183250473
 20
8.319793967235513
 10
5.273240183250473
 20
7.677793967235514
 10
5.073240183250473
 20
7.677793967235514
 10
5.073240183250473
 20
8.319793967235513
  0
LWPOLYLINE
  5
1AD
330
1F
100
AcDbEntity
  8
HANDLEWASHER
  6
DASHED
 62
   140
100
AcDbPolyline
 90
        2
 70
     0
 43
0.0
 10
5.073240183250473
 20
8.157793967235514
 10
5.273240183250473
 20
8.157793967235514
  0
LWPOLYLINE
  5
1AE
330
1F
100
AcDbEntity
  8
HANDLEWASHER
  6
DASHED
 62
   140
100
AcDbPolyline
 90
        2
 70
     0
 43
0.0
 10
5.073240183250473
 20
7.839793967235513
 10
5.273240183250473
 20
7.839793967235513
  0
LINE
  5
1AF
330
1F
100
AcDbEntity
  8
HANDLEWASHER
  6
CONTINUOUS
 62
   140
100
AcDbLine
 10
5.273240183250476
 20
8.204424389791585
 30
0.0
 11
5.073414213469842
 21
8.31979396723551
 31
0.0
  0
LINE
  5
1B0
330
1F
100
AcDbEntity
  8
HANDLEWASHER
  6
CONTINUOUS
 62
   140
100
AcDbLine
 10
5.083373544296001
 20
8.157793967235511
 30
0.0
 11
5.073240183250476
 21
8.163644465962944
 31
0.0
  0
LINE
  5
1B1
330
1F
100
AcDbEntity
  8
HANDLEWASHER
  6
CONTINUOUS
 62
   140
100
AcDbLine
 10
5.273240183250476
 20
7.735674456791878
 30
0.0
 11
5.092899901102903
 21
7.839793967235513
 31
0.0
  0
LINE
  5
1B2
330
1F
100
AcDbEntity
  8
HANDLEWASHER
  6
CONTINUOUS
 62
   140
100
AcDbLine
 10
5.102859231929062
 20
7.677793967235512
 30
0.0
 11
5.073240183250476
 21
7.694894532963234
 31
0.0
  0
TEXT
  5
1B3
330
1F
100
AcDbEntity
  8
BEARINGHOUSING
  6
DASHED
 62
     7
100
AcDbText
 10
0.5512487924958368
 20
10.34257038409917
 30
0.0
 40
0.15
  1
Compound Bearing/Leadscrew Assembly
  7
ARIAL
100
AcDbText
  0
TEXT
  5
1B4
330
1F
100
AcDbEntity
  8
BEARINGHOUSING
  6
DASHED
 62
     7
100
AcDbText
 10
0.7510000000000004
 20
4.786000000000001
 30
0.0
 40
0.15
  1
Bearing Housing
  7
ARIAL
100
AcDbText
  0
TEXT
  5
1B5
330
1F
100
AcDbEntity
  8
BEARINGHOUSING
  6
DASHED
 62
     7
100
AcDbText
 10
5.293133469945358
 20
0.5308038251366125
 30
0.0
 40
0.15
  1
Rick Kruger, March 24, 2000
  7
ARIAL
100
AcDbText
  0
LINE
  5
1B6
330
1F
100
AcDbEntity
  8
BEARINGHOUSING
  6
HIDDEN
 62
     1
100
AcDbLine
 10
4.266
 20
8.240011092235794
 30
0.0
 11
4.1205
 21
8.240000000000001
 31
0.0
  0
LINE
  5
1B7
330
1F
100
AcDbEntity
  8
BEARINGHOUSING
  6
HIDDEN
 62
     1
100
AcDbLine
 10
4.1205
 20
8.240000000000001
 30
0.0
 11
4.1205
 21
8.277999999999998
 31
0.0
  0
LWPOLYLINE
  5
1B8
330
1F
100
AcDbEntity
  8
BEARINGHOUSING
  6
HIDDEN
 62
     1
100
AcDbPolyline
 90
        2
 70
     0
 43
0.0
 10
4.266
 20
7.759963628882368
 10
4.1205
 20
7.760000000000001
  0
LWPOLYLINE
  5
1B9
330
1F
100
AcDbEntity
  8
BEARINGHOUSING
  6
HIDDEN
 62
     1
100
AcDbPolyline
 90
        2
 70
     0
 43
0.0
 10
4.1205
 20
7.760000000000001
 10
4.1205
 20
7.719999999999999
  0
LINE
  5
1BA
330
1F
100
AcDbEntity
  8
BEARINGHOUSING
  6
DASHED
 62
     1
100
AcDbLine
 10
4.601686130069787
 20
8.55
 30
0.0
 11
4.500686130069786
 21
8.651000000000001
 31
0.0
  0
LINE
  5
1BB
330
1F
100
AcDbEntity
  8
BEARINGHOUSING
  6
DASHED
 62
     1
100
AcDbLine
 10
4.460264773832478
 20
8.55
 30
0.0
 11
4.359264773832477
 21
8.651000000000001
 31
0.0
  0
LINE
  5
1BC
330
1F
100
AcDbEntity
  8
BEARINGHOUSING
  6
DASHED
 62
     1
100
AcDbLine
 10
4.318843417595169
 20
8.55
 30
0.0
 11
4.217843417595169
 21
8.650999999999999
 31
0.0
  0
LINE
  5
1BD
330
1F
100
AcDbEntity
  8
BEARINGHOUSING
  6
DASHED
 62
     1
100
AcDbLine
 10
4.286000000000002
 20
8.441422061357856
 30
0.0
 11
4.07642206135786
 21
8.650999999999999
 31
0.0
  0
LINE
  5
1BE
330
1F
100
AcDbEntity
  8
BEARINGHOUSING
  6
DASHED
 62
     1
100
AcDbLine
 10
4.266000000000002
 20
8.320000705120548
 30
0.0
 11
4.000000000000002
 21
8.586000705120548
 31
0.0
  0
LINE
  5
1BF
330
1F
100
AcDbEntity
  8
BEARINGHOUSING
  6
DASHED
 62
     1
100
AcDbLine
 10
4.204572939557677
 20
8.240006409325564
 30
0.0
 11
4.000000000000001
 21
8.444579348883241
 31
0.0
  0
LINE
  5
1C0
330
1F
100
AcDbEntity
  8
BEARINGHOUSING
  6
DASHED
 62
     1
100
AcDbLine
 10
4.025157992645935
 20
8.277999999999998
 30
0.0
 11
4.0
 21
8.303157992645932
 31
0.0
  0
LINE
  5
1C1
330
1F
100
AcDbEntity
  8
BEARINGHOUSING
  6
CONTINUOUS
 62
     1
100
AcDbLine
 10
4.590202025355322
 20
8.549999999999997
 30
0.0
 11
4.605000000000004
 21
8.56479797464468
 31
0.0
  0
LINE
  5
1C2
330
1F
100
AcDbEntity
  8
BEARINGHOUSING
  6
CONTINUOUS
 62
     1
100
AcDbLine
 10
4.138782062856518
 20
8.240001393738502
 30
0.0
 11
4.286000000000004
 21
8.387219330881988
 31
0.0
  0
LINE
  5
1C3
330
1F
100
AcDbEntity
  8
BEARINGHOUSING
  6
CONTINUOUS
 62
     1
100
AcDbLine
 10
4.448780669118012
 20
8.549999999999998
 30
0.0
 11
4.549780669118013
 21
8.650999999999998
 31
0.0
  0
LINE
  5
1C4
330
1F
100
AcDbEntity
  8
BEARINGHOUSING
  6
CONTINUOUS
 62
     1
100
AcDbLine
 10
4.035359312880703
 20
8.277999999999996
 30
0.0
 11
4.286000000000005
 21
8.528640687119299
 31
0.0
  0
LINE
  5
1C5
330
1F
100
AcDbEntity
  8
BEARINGHOUSING
  6
CONTINUOUS
 62
     1
100
AcDbLine
 10
4.307359312880705
 20
8.549999999999998
 30
0.0
 11
4.408359312880704
 21
8.650999999999998
 31
0.0
  0
LINE
  5
1C6
330
1F
100
AcDbEntity
  8
BEARINGHOUSING
  6
CONTINUOUS
 62
     1
100
AcDbLine
 10
4.000000000000003
 20
8.384062043356607
 30
0.0
 11
4.266937956643394
 21
8.650999999999998
 31
0.0
  0
LINE
  5
1C7
330
1F
100
AcDbEntity
  8
BEARINGHOUSING
  6
CONTINUOUS
 62
     1
100
AcDbLine
 10
4.000000000000004
 20
8.525483399593918
 30
0.0
 11
4.125516600406085
 21
8.650999999999998
 31
0.0
  0
LINE
  5
1C8
330
1F
100
AcDbEntity
  8
BEARINGHOUSING
  6
DASHED
 62
     1
100
AcDbLine
 10
4.605000000000001
 20
7.415315280171308
 30
0.0
 11
4.573315280171311
 21
7.446999999999998
 31
0.0
  0
LINE
  5
1C9
330
1F
100
AcDbEntity
  8
BEARINGHOUSING
  6
DASHED
 62
     1
100
AcDbLine
 10
4.266
 20
7.754315280171309
 30
0.0
 11
4.260350238999444
 21
7.759965041171864
 31
0.0
  0
LINE
  5
1CA
330
1F
100
AcDbEntity
  8
BEARINGHOUSING
  6
DASHED
 62
     1
100
AcDbLine
 10
4.529893923934
 20
7.348999999999999
 30
0.0
 11
4.431893923934001
 21
7.446999999999998
 31
0.0
  0
LINE
  5
1CB
330
1F
100
AcDbEntity
  8
BEARINGHOUSING
  6
DASHED
 62
     1
100
AcDbLine
 10
4.286000000000004
 20
7.592893923933995
 30
0.0
 11
4.120500000000001
 21
7.758393923933998
 31
0.0
  0
LINE
  5
1CC
330
1F
100
AcDbEntity
  8
BEARINGHOUSING
  6
DASHED
 62
     1
100
AcDbLine
 10
4.388472567696691
 20
7.348999999999999
 30
0.0
 11
4.290472567696692
 21
7.446999999999998
 31
0.0
  0
LINE
  5
1CD
330
1F
100
AcDbEntity
  8
BEARINGHOUSING
  6
DASHED
 62
     1
100
AcDbLine
 10
4.286000000000002
 20
7.451472567696688
 30
0.0
 11
4.017472567696692
 21
7.719999999999997
 31
0.0
  0
LINE
  5
1CE
330
1F
100
AcDbEntity
  8
BEARINGHOUSING
  6
DASHED
 62
     1
100
AcDbLine
 10
4.247051211459383
 20
7.349000000000001
 30
0.0
 11
4.000000000000001
 21
7.596051211459381
 31
0.0
  0
LINE
  5
1CF
330
1F
100
AcDbEntity
  8
BEARINGHOUSING
  6
DASHED
 62
     1
100
AcDbLine
 10
4.105629855222073
 20
7.349000000000001
 30
0.0
 11
4.000000000000002
 21
7.454629855222072
 31
0.0
  0
LINE
  5
1D0
330
1F
100
AcDbEntity
  8
BEARINGHOUSING
  6
CONTINUOUS
 62
     1
100
AcDbLine
 10
4.520572875253801
 20
7.348999999999997
 30
0.0
 11
4.605000000000004
 21
7.433427124746201
 31
0.0
  0
LINE
  5
1D1
330
1F
100
AcDbEntity
  8
BEARINGHOUSING
  6
CONTINUOUS
 62
     1
100
AcDbLine
 10
4.379151519016491
 20
7.348999999999998
 30
0.0
 11
4.47715151901649
 21
7.446999999999996
 31
0.0
  0
LINE
  5
1D2
330
1F
100
AcDbEntity
  8
BEARINGHOUSING
  6
CONTINUOUS
 62
     1
100
AcDbLine
 10
4.237730162779182
 20
7.348999999999998
 30
0.0
 11
4.33573016277918
 21
7.446999999999996
 31
0.0
  0
LINE
  5
1D3
330
1F
100
AcDbEntity
  8
BEARINGHOUSING
  6
CONTINUOUS
 62
     1
100
AcDbLine
 10
4.096308806541872
 20
7.348999999999999
 30
0.0
 11
4.286000000000006
 21
7.538691193458133
 31
0.0
  0
LINE
  5
1D4
330
1F
100
AcDbEntity
  8
BEARINGHOUSING
  6
CONTINUOUS
 62
     1
100
AcDbLine
 10
4.000000000000004
 20
7.394112549695439
 30
0.0
 11
4.266000000000002
 21
7.660112549695438
 31
0.0
  0
LINE
  5
1D5
330
1F
100
AcDbEntity
  8
BEARINGHOUSING
  6
CONTINUOUS
 62
     1
100
AcDbLine
 10
4.000000000000003
 20
7.535533905932749
 30
0.0
 11
4.224440111812728
 21
7.759974017745473
 31
0.0
  0
LINE
  5
1D6
330
1F
100
AcDbEntity
  8
BEARINGHOUSING
  6
CONTINUOUS
 62
     1
100
AcDbLine
 10
4.000000000000003
 20
7.676955262170058
 30
0.0
 11
4.043044737829941
 21
7.719999999999997
 31
0.0
  0
LINE
  5
1D7
330
1F
100
AcDbEntity
  8
BEARINGHOUSING
  6
CONTINUOUS
 62
     1
100
AcDbLine
 10
5.000578729405611
 20
2.348999845059703
 30
0.0
 11
5.605578729405611
 21
2.348999845059703
 31
0.0
  0
LINE
  5
1D8
330
1F
100
AcDbEntity
  8
BEARINGHOUSING
  6
HIDDEN
 62
     1
100
AcDbLine
 10
5.286578729405612
 20
2.4485
 30
0.0
 11
5.605599999999999
 21
2.4485
 31
0.0
  0
LINE
  5
1D9
330
1F
100
AcDbEntity
  8
BEARINGHOUSING
  6
HIDDEN
 62
     1
100
AcDbLine
 10
5.266578729405613
 20
2.648499845059701
 30
0.0
 11
5.286578729405616
 21
2.648499845059701
 31
0.0
  0
LINE
  5
1DA
330
1F
100
AcDbEntity
  8
BEARINGHOUSING
  6
HIDDEN
 62
     1
100
AcDbLine
 10
5.121078729405612
 20
2.721
 30
0.0
 11
5.000578729405612
 21
2.721
 31
0.0
  0
LWPOLYLINE
  5
1DB
330
1F
100
AcDbEntity
  8
BEARINGHOUSING
  6
HIDDEN
 62
     1
100
AcDbPolyline
 90
        2
 70
     0
 43
0.0
 10
5.121078729405612
 20
2.759999845059703
 10
5.121078729405612
 20
2.721
  0
LINE
  5
1DC
330
1F
100
AcDbEntity
  8
BEARINGHOUSING
  6
HIDDEN
 62
     1
100
AcDbLine
 10
5.266578729405611
 20
2.75996347394207
 30
0.0
 11
5.121078729405612
 21
2.759999845059703
 31
0.0
  0
LINE
  5
1DD
330
1F
100
AcDbEntity
  8
BEARINGHOUSING
  6
HIDDEN
 62
     1
100
AcDbLine
 10
5.286578729405612
 20
3.348499845059703
 30
0.0
 11
5.266578729405611
 21
3.348499845059703
 31
0.0
  0
LINE
  5
1DE
330
1F
100
AcDbEntity
  8
BEARINGHOUSING
  6
HIDDEN
 62
     1
100
AcDbLine
 10
5.266578729405611
 20
3.348499845059703
 30
0.0
 11
5.266578729405611
 21
2.648499845059701
 31
0.0
  0
LINE
  5
1DF
330
1F
100
AcDbEntity
  8
BEARINGHOUSING
  6
HIDDEN
 62
     1
100
AcDbLine
 10
5.286500178040267
 20
3.551499999999999
 30
0.0
 11
5.286578729405612
 21
2.4485
 31
0.0
  0
LINE
  5
1E0
330
1F
100
AcDbEntity
  8
BEARINGHOUSING
  6
HIDDEN
 62
     1
100
AcDbLine
 10
5.286500178040267
 20
3.551499999999999
 30
0.0
 11
5.60557872940561
 21
3.551499999999999
 31
0.0
  0
LINE
  5
1E1
330
1F
100
AcDbEntity
  8
BEARINGHOUSING
  6
CONTINUOUS
 62
     1
100
AcDbLine
 10
5.60557872940561
 20
3.650999845059703
 30
0.0
 11
5.60557872940561
 21
2.348999845059704
 31
0.0
  0
LINE
  5
1E2
330
1F
100
AcDbEntity
  8
BEARINGHOUSING
  6
CONTINUOUS
 62
     1
100
AcDbLine
 10
5.000578729405611
 20
3.650999845059703
 30
0.0
 11
5.605578729405611
 21
3.650999845059703
 31
0.0
  0
LINE
  5
1E3
330
1F
100
AcDbEntity
  8
BEARINGHOUSING
  6
CONTINUOUS
 62
     1
100
AcDbLine
 10
5.000578729405612
 20
3.650999845059701
 30
0.0
 11
5.000578729405612
 21
2.348999845059704
 31
0.0
  0
LINE
  5
1E4
330
1F
100
AcDbEntity
  8
BEARINGHOUSING
  6
HIDDEN
 62
     1
100
AcDbLine
 10
5.121078729405612
 20
3.278999999999999
 30
0.0
 11
5.000578729405612
 21
3.278999999999999
 31
0.0
  0
LINE
  5
1E5
330
1F
100
AcDbEntity
  8
BEARINGHOUSING
  6
HIDDEN
 62
     1
100
AcDbLine
 10
5.121078729405612
 20
3.239999845059704
 30
0.0
 11
5.121078729405612
 21
3.278999999999999
 31
0.0
  0
LINE
  5
1E6
330
1F
100
AcDbEntity
  8
BEARINGHOUSING
  6
HIDDEN
 62
     1
100
AcDbLine
 10
5.266578729405611
 20
3.240010937295497
 30
0.0
 11
5.121078729405612
 21
3.239999845059704
 31
0.0
  0
LINE
  5
1E7
330
1F
100
AcDbEntity
  8
BEARINGHOUSING
  6
DASHED
 62
     1
100
AcDbLine
 10
5.605578729405611
 20
3.586309426019506
 30
0.0
 11
5.540888310365415
 21
3.650999845059702
 31
0.0
  0
LINE
  5
1E8
330
1F
100
AcDbEntity
  8
BEARINGHOUSING
  6
DASHED
 62
     1
100
AcDbLine
 10
5.49896679918781
 20
3.551499999999999
 30
0.0
 11
5.399466954128106
 21
3.650999845059703
 31
0.0
  0
LINE
  5
1E9
330
1F
100
AcDbEntity
  8
BEARINGHOUSING
  6
DASHED
 62
     1
100
AcDbLine
 10
5.357545442950502
 20
3.551499999999999
 30
0.0
 11
5.258045597890798
 21
3.650999845059703
 31
0.0
  0
LINE
  5
1EA
330
1F
100
AcDbEntity
  8
BEARINGHOUSING
  6
DASHED
 62
     1
100
AcDbLine
 10
5.286505190308429
 20
3.481118896404762
 30
0.0
 11
5.116624241653489
 21
3.650999845059703
 31
0.0
  0
LINE
  5
1EB
330
1F
100
AcDbEntity
  8
BEARINGHOUSING
  6
DASHED
 62
     1
100
AcDbLine
 10
5.27770288541618
 20
3.348499845059702
 30
0.0
 11
5.000578729405612
 21
3.62562400107027
 31
0.0
  0
LINE
  5
1EC
330
1F
100
AcDbEntity
  8
BEARINGHOUSING
  6
DASHED
 62
     1
100
AcDbLine
 10
5.244772099378006
 20
3.240009274860567
 30
0.0
 11
5.000578729405613
 21
3.48420264483296
 31
0.0
  0
LINE
  5
1ED
330
1F
100
AcDbEntity
  8
BEARINGHOUSING
  6
DASHED
 62
     1
100
AcDbLine
 10
5.064360018001266
 20
3.278999999999998
 30
0.0
 11
5.000578729405613
 21
3.34278128859565
 31
0.0
  0
LINE
  5
1EE
330
1F
100
AcDbEntity
  8
BEARINGHOUSING
  6
CONTINUOUS
 62
     1
100
AcDbLine
 10
5.219906366536352
 20
3.240007379214023
 30
0.0
 11
5.266578729405613
 21
3.286679742083284
 31
0.0
  0
LINE
  5
1EF
330
1F
100
AcDbEntity
  8
BEARINGHOUSING
  6
CONTINUOUS
 62
     1
100
AcDbLine
 10
5.531398987322325
 20
3.551499999999997
 30
0.0
 11
5.605578729405612
 21
3.625679742083284
 31
0.0
  0
LINE
  5
1F0
330
1F
100
AcDbEntity
  8
BEARINGHOUSING
  6
CONTINUOUS
 62
     1
100
AcDbLine
 10
5.117477631085016
 20
3.278999999999998
 30
0.0
 11
5.286507546776801
 21
3.448029915691782
 31
0.0
  0
LINE
  5
1F1
330
1F
100
AcDbEntity
  8
BEARINGHOUSING
  6
CONTINUOUS
 62
     1
100
AcDbLine
 10
5.389977631085016
 20
3.551499999999998
 30
0.0
 11
5.489477476144719
 21
3.6509998450597
 31
0.0
  0
LINE
  5
1F2
330
1F
100
AcDbEntity
  8
BEARINGHOUSING
  6
CONTINUOUS
 62
     1
100
AcDbLine
 10
5.000578729405613
 20
3.303522454557904
 30
0.0
 11
5.348056119907409
 21
3.6509998450597
 31
0.0
  0
LINE
  5
1F3
330
1F
100
AcDbEntity
  8
BEARINGHOUSING
  6
CONTINUOUS
 62
     1
100
AcDbLine
 10
5.000578729405614
 20
3.444943810795214
 30
0.0
 11
5.206634763670099
 21
3.650999845059701
 31
0.0
  0
LINE
  5
1F4
330
1F
100
AcDbEntity
  8
BEARINGHOUSING
  6
CONTINUOUS
 62
     1
100
AcDbLine
 10
5.000578729405613
 20
3.586365167032524
 30
0.0
 11
5.065213407432791
 21
3.650999845059701
 31
0.0
  0
LINE
  5
1F5
330
1F
100
AcDbEntity
  8
BEARINGHOUSING
  6
DASHED
 62
     1
100
AcDbLine
 10
5.570096104229629
 20
2.348999845059703
 30
0.0
 11
5.470595949289334
 21
2.448499999999998
 31
0.0
  0
LINE
  5
1F6
330
1F
100
AcDbEntity
  8
BEARINGHOUSING
  6
DASHED
 62
     1
100
AcDbLine
 10
5.286565623482352
 20
2.632530325806981
 30
0.0
 11
5.270596104229633
 21
2.6484998450597
 31
0.0
  0
LINE
  5
1F7
330
1F
100
AcDbEntity
  8
BEARINGHOUSING
  6
DASHED
 62
     1
100
AcDbLine
 10
5.266578729405611
 20
2.652517219883721
 30
0.0
 11
5.159105609935094
 21
2.759990339354239
 31
0.0
  0
LINE
  5
1F8
330
1F
100
AcDbEntity
  8
BEARINGHOUSING
  6
DASHED
 62
     1
100
AcDbLine
 10
5.428674747992321
 20
2.348999845059703
 30
0.0
 11
5.329174593052026
 21
2.448499999999998
 31
0.0
  0
LINE
  5
1F9
330
1F
100
AcDbEntity
  8
BEARINGHOUSING
  6
DASHED
 62
     1
100
AcDbLine
 10
5.286575695678005
 20
2.491098897374018
 30
0.0
 11
5.056674593052025
 21
2.720999999999999
 31
0.0
  0
LINE
  5
1FA
330
1F
100
AcDbEntity
  8
BEARINGHOUSING
  6
DASHED
 62
     1
100
AcDbLine
 10
5.287253391755013
 20
2.348999845059703
 30
0.0
 11
5.000578729405613
 21
2.635674507409103
 31
0.0
  0
LINE
  5
1FB
330
1F
100
AcDbEntity
  8
BEARINGHOUSING
  6
DASHED
 62
     1
100
AcDbLine
 10
5.145832035517703
 20
2.348999845059703
 30
0.0
 11
5.000578729405613
 21
2.494253151171794
 31
0.0
  0
LINE
  5
1FC
330
1F
100
AcDbEntity
  8
BEARINGHOUSING
  6
DASHED
 62
     1
100
AcDbLine
 10
5.004410679280394
 20
2.348999845059703
 30
0.0
 11
5.000578729405612
 21
2.352831794934485
 31
0.0
  0
LINE
  5
1FD
330
1F
100
AcDbEntity
  8
BEARINGHOUSING
  6
CONTINUOUS
 62
     1
100
AcDbLine
 10
5.601691038517815
 20
2.3489998450597
 30
0.0
 11
5.605578729405612
 21
2.352887535947498
 31
0.0
  0
LINE
  5
1FE
330
1F
100
AcDbEntity
  8
BEARINGHOUSING
  6
CONTINUOUS
 62
     1
100
AcDbLine
 10
5.460269682280505
 20
2.3489998450597
 30
0.0
 11
5.559769837220801
 21
2.448499999999997
 31
0.0
  0
LINE
  5
1FF
330
1F
100
AcDbEntity
  8
BEARINGHOUSING
  6
CONTINUOUS
 62
     1
100
AcDbLine
 10
5.318848326043196
 20
2.3489998450597
 30
0.0
 11
5.418348480983492
 21
2.448499999999997
 31
0.0
  0
LINE
  5
200
330
1F
100
AcDbEntity
  8
BEARINGHOUSING
  6
CONTINUOUS
 62
     1
100
AcDbLine
 10
5.177426969805886
 20
2.3489998450597
 30
0.0
 11
5.286578042104856
 21
2.458150917358671
 31
0.0
  0
LINE
  5
201
330
1F
100
AcDbEntity
  8
BEARINGHOUSING
  6
CONTINUOUS
 62
     1
100
AcDbLine
 10
5.036005613568577
 20
2.348999845059701
 30
0.0
 11
5.286567971343705
 21
2.59956220283483
 31
0.0
  0
LINE
  5
202
330
1F
100
AcDbEntity
  8
BEARINGHOUSING
  6
CONTINUOUS
 62
     1
100
AcDbLine
 10
5.000578729405613
 20
2.454994317134047
 30
0.0
 11
5.266578729405613
 21
2.720994317134046
 31
0.0
  0
LINE
  5
203
330
1F
100
AcDbEntity
  8
BEARINGHOUSING
  6
CONTINUOUS
 62
     1
100
AcDbLine
 10
5.000578729405614
 20
2.596415673371356
 30
0.0
 11
5.16415213389216
 21
2.759989077857904
 31
0.0
  0
TEXT
  5
204
330
1F
100
AcDbEntity
  8
BEARINGDIMS
  6
CONTINUOUS
 62
     5
100
AcDbText
 10
5.108672146126629
 20
9.554700000000002
 30
0.0
 40
0.125
  1
0.3140"
  7
ARIAL
 72
     1
 11
5.37601644024253
 21
9.617200000000002
 31
0.0
100
AcDbText
 73
     2
  0
LINE
  5
205
330
1F
100
AcDbEntity
  8
BEARINGDIMS
  6
CONTINUOUS
 62
     5
100
AcDbLine
 10
4.286000000000001
 20
9.013000000000001
 30
0.0
 11
4.286000000000001
 21
9.867200000000002
 31
0.0
  0
LINE
  5
206
330
1F
100
AcDbEntity
  8
BEARINGDIMS
  6
CONTINUOUS
 62
     5
100
AcDbLine
 10
4.600000000000001
 20
9.013000000000001
 30
0.0
 11
4.600000000000001
 21
9.867200000000002
 31
0.0
  0
LINE
  5
207
330
1F
100
AcDbEntity
  8
BEARINGDIMS
  6
CONTINUOUS
 62
     5
100
AcDbLine
 10
4.286000000000001
 20
9.617200000000002
 30
0.0
 11
3.911000000000001
 21
9.617200000000002
 31
0.0
  0
LINE
  5
208
330
1F
100
AcDbEntity
  8
BEARINGDIMS
  6
CONTINUOUS
 62
     5
100
AcDbLine
 10
4.600000000000001
 20
9.617200000000002
 30
0.0
 11
4.975000000000001
 21
9.617200000000002
 31
0.0
  0
INSERT
  5
209
330
1F
100
AcDbEntity
  8
BEARINGDIMS
  6
CONTINUOUS
 62
     5
100
AcDbBlockReference
  2
LONGARROW
 10
4.286000000000001
 20
9.617200000000002
 30
0.0
 41
0.125
 42
0.125
 50
180.0
  0
INSERT
  5
20A
330
1F
100
AcDbEntity
  8
BEARINGDIMS
  6
CONTINUOUS
 62
     5
100
AcDbBlockReference
  2
LONGARROW
 10
4.600000000000001
 20
9.617200000000002
 30
0.0
 41
0.125
 42
0.125
  0
TEXT
  5
20B
330
1F
100
AcDbEntity
  8
BEARINGHOUSINGDIMS
  6
CONTINUOUS
 62
     1
100
AcDbText
 10
6.114250875532238
 20
4.627299876047762
 30
0.0
 40
0.125
  1
0.6050"
  7
ARIAL
 72
     1
 11
6.381595169648139
 21
4.689799876047762
 31
0.0
100
AcDbText
 73
     2
  0
LINE
  5
20C
330
1F
100
AcDbEntity
  8
BEARINGHOUSINGDIMS
  6
CONTINUOUS
 62
     1
100
AcDbLine
 10
5.000578729405612
 20
3.97
 30
0.0
 11
5.000578729405612
 21
4.939799876047762
 31
0.0
  0
LINE
  5
20D
330
1F
100
AcDbEntity
  8
BEARINGHOUSINGDIMS
  6
CONTINUOUS
 62
     1
100
AcDbLine
 10
5.60557872940561
 20
3.97
 30
0.0
 11
5.60557872940561
 21
4.939799876047762
 31
0.0
  0
LINE
  5
20E
330
1F
100
AcDbEntity
  8
BEARINGHOUSINGDIMS
  6
CONTINUOUS
 62
     1
100
AcDbLine
 10
5.000578729405612
 20
4.689799876047762
 30
0.0
 11
4.625578729405612
 21
4.689799876047762
 31
0.0
  0
LINE
  5
20F
330
1F
100
AcDbEntity
  8
BEARINGHOUSINGDIMS
  6
CONTINUOUS
 62
     1
100
AcDbLine
 10
5.60557872940561
 20
4.689799876047762
 30
0.0
 11
5.98057872940561
 21
4.689799876047762
 31
0.0
  0
INSERT
  5
210
330
1F
100
AcDbEntity
  8
BEARINGHOUSINGDIMS
  6
CONTINUOUS
 62
     1
100
AcDbBlockReference
  2
LONGARROW
 10
5.000578729405612
 20
4.689799876047762
 30
0.0
 41
0.125
 42
0.125
 50
180.0
  0
INSERT
  5
211
330
1F
100
AcDbEntity
  8
BEARINGHOUSINGDIMS
  6
CONTINUOUS
 62
     1
100
AcDbBlockReference
  2
LONGARROW
 10
5.60557872940561
 20
4.689799876047762
 30
0.0
 41
0.125
 42
0.125
  0
TEXT
  5
212
330
1F
100
AcDbEntity
  8
BEARINGHOUSINGDIMS
  6
CONTINUOUS
 62
     1
100
AcDbText
 10
6.114250875532238
 20
4.290070349462677
 30
0.0
 40
0.125
  1
0.3191"
  7
ARIAL
 72
     1
 11
6.381595169648139
 21
4.352570349462677
 31
0.0
100
AcDbText
 73
     2
  0
LINE
  5
213
330
1F
100
AcDbEntity
  8
BEARINGHOUSINGDIMS
  6
CONTINUOUS
 62
     1
100
AcDbLine
 10
5.286500178040267
 20
3.876
 30
0.0
 11
5.286500178040267
 21
4.602570349462677
 31
0.0
  0
LINE
  5
214
330
1F
100
AcDbEntity
  8
BEARINGHOUSINGDIMS
  6
CONTINUOUS
 62
     1
100
AcDbLine
 10
5.60557872940561
 20
3.876
 30
0.0
 11
5.60557872940561
 21
4.602570349462677
 31
0.0
  0
LINE
  5
215
330
1F
100
AcDbEntity
  8
BEARINGHOUSINGDIMS
  6
CONTINUOUS
 62
     1
100
AcDbLine
 10
5.286500178040267
 20
4.352570349462677
 30
0.0
 11
4.911500178040267
 21
4.352570349462677
 31
0.0
  0
LINE
  5
216
330
1F
100
AcDbEntity
  8
BEARINGHOUSINGDIMS
  6
CONTINUOUS
 62
     1
100
AcDbLine
 10
5.60557872940561
 20
4.352570349462677
 30
0.0
 11
5.98057872940561
 21
4.352570349462677
 31
0.0
  0
INSERT
  5
217
330
1F
100
AcDbEntity
  8
BEARINGHOUSINGDIMS
  6
CONTINUOUS
 62
     1
100
AcDbBlockReference
  2
LONGARROW
 10
5.286500178040267
 20
4.352570349462677
 30
0.0
 41
0.125
 42
0.125
 50
180.0
  0
INSERT
  5
218
330
1F
100
AcDbEntity
  8
BEARINGHOUSINGDIMS
  6
CONTINUOUS
 62
     1
100
AcDbBlockReference
  2
LONGARROW
 10
5.60557872940561
 20
4.352570349462677
 30
0.0
 41
0.125
 42
0.125
  0
TEXT
  5
219
330
1F
100
AcDbEntity
  8
BEARINGHOUSINGDIMS
  6
CONTINUOUS
 62
     1
100
AcDbText
 10
4.223217995047181
 20
1.378807170104894
 30
0.0
 40
0.125
  1
0.0200"
  7
ARIAL
 72
     1
 11
4.490562289163082
 21
1.441307170104894
 31
0.0
100
AcDbText
 73
     2
  0
LINE
  5
21A
330
1F
100
AcDbEntity
  8
BEARINGHOUSINGDIMS
  6
CONTINUOUS
 62
     1
100
AcDbLine
 10
5.286564486195369
 20
2.154
 30
0.0
 11
5.286564486195369
 21
1.191307170104894
 31
0.0
  0
LINE
  5
21B
330
1F
100
AcDbEntity
  8
BEARINGHOUSINGDIMS
  6
CONTINUOUS
 62
     1
100
AcDbLine
 10
5.266578729405611
 20
2.154
 30
0.0
 11
5.266578729405611
 21
1.191307170104894
 31
0.0
  0
LINE
  5
21C
330
1F
100
AcDbEntity
  8
BEARINGHOUSINGDIMS
  6
CONTINUOUS
 62
     1
100
AcDbLine
 10
5.286564486195369
 20
1.441307170104894
 30
0.0
 11
5.661564486195369
 21
1.441307170104894
 31
0.0
  0
LINE
  5
21D
330
1F
100
AcDbEntity
  8
BEARINGHOUSINGDIMS
  6
CONTINUOUS
 62
     1
100
AcDbLine
 10
5.266578729405611
 20
1.441307170104894
 30
0.0
 11
4.891578729405611
 21
1.441307170104894
 31
0.0
  0
INSERT
  5
21E
330
1F
100
AcDbEntity
  8
BEARINGHOUSINGDIMS
  6
CONTINUOUS
 62
     1
100
AcDbBlockReference
  2
LONGARROW
 10
5.286564486195369
 20
1.441307170104894
 30
0.0
 41
0.125
 42
0.125
  0
INSERT
  5
21F
330
1F
100
AcDbEntity
  8
BEARINGHOUSINGDIMS
  6
CONTINUOUS
 62
     1
100
AcDbBlockReference
  2
LONGARROW
 10
5.266578729405611
 20
1.441307170104894
 30
0.0
 41
0.125
 42
0.125
 50
180.0
  0
TEXT
  5
220
330
1F
100
AcDbEntity
  8
BEARINGHOUSINGDIMS
  6
CONTINUOUS
 62
     1
100
AcDbText
 10
7.359979080436652
 20
2.937499845059703
 30
0.0
 40
0.125
  1
1.3020"
  7
ARIAL
 72
     1
 11
7.627323374552553
 21
2.999999845059703
 31
0.0
100
AcDbText
 73
     2
  0
LINE
  5
221
330
1F
100
AcDbEntity
  8
BEARINGHOUSINGDIMS
  6
CONTINUOUS
 62
     1
100
AcDbLine
 10
5.730578729405612
 20
3.650999845059703
 30
0.0
 11
7.877323374552553
 21
3.650999845059703
 31
0.0
  0
LINE
  5
222
330
1F
100
AcDbEntity
  8
BEARINGHOUSINGDIMS
  6
CONTINUOUS
 62
     1
100
AcDbLine
 10
5.730578729405611
 20
2.348999845059703
 30
0.0
 11
7.877323374552554
 21
2.348999845059703
 31
0.0
  0
LINE
  5
223
330
1F
100
AcDbEntity
  8
BEARINGHOUSINGDIMS
  6
CONTINUOUS
 62
     1
100
AcDbLine
 10
7.627323374552553
 20
3.650999845059703
 30
0.0
 11
7.627323374552553
 21
3.093749845059703
 31
0.0
  0
LINE
  5
224
330
1F
100
AcDbEntity
  8
BEARINGHOUSINGDIMS
  6
CONTINUOUS
 62
     1
100
AcDbLine
 10
7.627323374552554
 20
2.348999845059703
 30
0.0
 11
7.627323374552554
 21
2.906249845059703
 31
0.0
  0
INSERT
  5
225
330
1F
100
AcDbEntity
  8
BEARINGHOUSINGDIMS
  6
CONTINUOUS
 62
     1
100
AcDbBlockReference
  2
LONGARROW
 10
7.627323374552553
 20
3.650999845059703
 30
0.0
 41
0.125
 42
0.125
 50
270.0
  0
INSERT
  5
226
330
1F
100
AcDbEntity
  8
BEARINGHOUSINGDIMS
  6
CONTINUOUS
 62
     1
100
AcDbBlockReference
  2
LONGARROW
 10
7.627323374552554
 20
2.348999845059703
 30
0.0
 41
0.125
 42
0.125
 50
90.00000000000005
  0
TEXT
  5
227
330
1F
100
AcDbEntity
  8
BEARINGHOUSINGDIMS
  6
CONTINUOUS
 62
     1
100
AcDbText
 10
6.510971451765222
 20
2.9375
 30
0.0
 40
0.125
  1
1.1030"
  7
ARIAL
 72
     1
 11
6.778315745881123
 21
3.0
 31
0.0
100
AcDbText
 73
     2
  0
LINE
  5
228
330
1F
100
AcDbEntity
  8
BEARINGHOUSINGDIMS
  6
CONTINUOUS
 62
     1
100
AcDbLine
 10
5.73057872940561
 20
3.551499999999999
 30
0.0
 11
7.028315745881122
 21
3.551499999999999
 31
0.0
  0
LINE
  5
229
330
1F
100
AcDbEntity
  8
BEARINGHOUSINGDIMS
  6
CONTINUOUS
 62
     1
100
AcDbLine
 10
5.73057872940561
 20
2.4485
 30
0.0
 11
7.028315745881123
 21
2.4485
 31
0.0
  0
LINE
  5
22A
330
1F
100
AcDbEntity
  8
BEARINGHOUSINGDIMS
  6
CONTINUOUS
 62
     1
100
AcDbLine
 10
6.778315745881122
 20
3.551499999999999
 30
0.0
 11
6.778315745881122
 21
3.09375
 31
0.0
  0
LINE
  5
22B
330
1F
100
AcDbEntity
  8
BEARINGHOUSINGDIMS
  6
CONTINUOUS
 62
     1
100
AcDbLine
 10
6.778315745881123
 20
2.4485
 30
0.0
 11
6.778315745881123
 21
2.90625
 31
0.0
  0
INSERT
  5
22C
330
1F
100
AcDbEntity
  8
BEARINGHOUSINGDIMS
  6
CONTINUOUS
 62
     1
100
AcDbBlockReference
  2
LONGARROW
 10
6.778315745881122
 20
3.551499999999999
 30
0.0
 41
0.125
 42
0.125
 50
270.0
  0
INSERT
  5
22D
330
1F
100
AcDbEntity
  8
BEARINGHOUSINGDIMS
  6
CONTINUOUS
 62
     1
100
AcDbBlockReference
  2
LONGARROW
 10
6.778315745881123
 20
2.4485
 30
0.0
 41
0.125
 42
0.125
 50
90.00000000000005
  0
TEXT
  5
22E
330
1F
100
AcDbEntity
  8
BEARINGHOUSINGDIMS
  6
CONTINUOUS
 62
     1
100
AcDbText
 10
5.800464490954688
 20
2.117249845059701
 30
0.0
 40
0.125
  1
0.7000"
  7
ARIAL
 72
     1
 11
6.067808785070589
 21
2.179749845059701
 31
0.0
100
AcDbText
 73
     2
  0
LINE
  5
22F
330
1F
100
AcDbEntity
  8
BEARINGHOUSINGDIMS
  6
CONTINUOUS
 62
     1
100
AcDbLine
 10
5.771
 20
3.348499845059703
 30
0.0
 11
6.317808785070588
 21
3.348499845059703
 31
0.0
  0
LINE
  5
230
330
1F
100
AcDbEntity
  8
BEARINGHOUSINGDIMS
  6
CONTINUOUS
 62
     1
100
AcDbLine
 10
5.771021026657314
 20
2.648499845059701
 30
0.0
 11
6.317808785070589
 21
2.648499845059701
 31
0.0
  0
LINE
  5
231
330
1F
100
AcDbEntity
  8
BEARINGHOUSINGDIMS
  6
CONTINUOUS
 62
     1
100
AcDbLine
 10
6.067808785070588
 20
3.348499845059703
 30
0.0
 11
6.067808785070588
 21
3.723499845059703
 31
0.0
  0
LINE
  5
232
330
1F
100
AcDbEntity
  8
BEARINGHOUSINGDIMS
  6
CONTINUOUS
 62
     1
100
AcDbLine
 10
6.067808785070589
 20
2.648499845059701
 30
0.0
 11
6.067808785070589
 21
2.273499845059701
 31
0.0
  0
INSERT
  5
233
330
1F
100
AcDbEntity
  8
BEARINGHOUSINGDIMS
  6
CONTINUOUS
 62
     1
100
AcDbBlockReference
  2
LONGARROW
 10
6.067808785070588
 20
3.348499845059703
 30
0.0
 41
0.125
 42
0.125
 50
90.00000000000007
  0
INSERT
  5
234
330
1F
100
AcDbEntity
  8
BEARINGHOUSINGDIMS
  6
CONTINUOUS
 62
     1
100
AcDbBlockReference
  2
LONGARROW
 10
6.067808785070589
 20
2.648499845059701
 30
0.0
 41
0.125
 42
0.125
 50
270.0
  0
TEXT
  5
235
330
1F
100
AcDbEntity
  8
BEARINGHOUSINGDIMS
  6
CONTINUOUS
 62
     1
100
AcDbText
 10
3.700810984169923
 20
4.443799999736873
 30
0.0
 40
0.125
  1
0.1981"
  7
ARIAL
 72
     1
 11
3.968155278285824
 21
4.506299999736873
 31
0.0
100
AcDbText
 73
     2
  0
LINE
  5
236
330
1F
100
AcDbEntity
  8
BEARINGHOUSINGDIMS
  6
CONTINUOUS
 62
     1
100
AcDbLine
 10
2.99399999783269
 20
3.9165
 30
0.0
 11
2.99399999783269
 21
4.756299999736873
 31
0.0
  0
LINE
  5
237
330
1F
100
AcDbEntity
  8
BEARINGHOUSINGDIMS
  6
CONTINUOUS
 62
     1
100
AcDbLine
 10
3.192138838043296
 20
3.9165
 30
0.0
 11
3.192138838043296
 21
4.756299999736873
 31
0.0
  0
LINE
  5
238
330
1F
100
AcDbEntity
  8
BEARINGHOUSINGDIMS
  6
CONTINUOUS
 62
     1
100
AcDbLine
 10
2.99399999783269
 20
4.506299999736873
 30
0.0
 11
2.61899999783269
 21
4.506299999736873
 31
0.0
  0
LINE
  5
239
330
1F
100
AcDbEntity
  8
BEARINGHOUSINGDIMS
  6
CONTINUOUS
 62
     1
100
AcDbLine
 10
3.192138838043296
 20
4.506299999736873
 30
0.0
 11
3.567138838043296
 21
4.506299999736873
 31
0.0
  0
INSERT
  5
23A
330
1F
100
AcDbEntity
  8
BEARINGHOUSINGDIMS
  6
CONTINUOUS
 62
     1
100
AcDbBlockReference
  2
LONGARROW
 10
2.99399999783269
 20
4.506299999736873
 30
0.0
 41
0.125
 42
0.125
 50
180.0
  0
INSERT
  5
23B
330
1F
100
AcDbEntity
  8
BEARINGHOUSINGDIMS
  6
CONTINUOUS
 62
     1
100
AcDbBlockReference
  2
LONGARROW
 10
3.192138838043296
 20
4.506299999736873
 30
0.0
 41
0.125
 42
0.125
  0
LINE
  5
23C
330
1F
100
AcDbEntity
  8
BEARINGHOUSINGDIMS
  6
CONTINUOUS
 62
     1
100
AcDbLine
 10
2.626667979695888
 20
3.922057486320603
 30
0.0
 11
2.251667979695888
 21
3.922057486320603
 31
0.0
  0
LINE
  5
23D
330
1F
100
AcDbEntity
  8
BEARINGHOUSINGDIMS
  6
CONTINUOUS
 62
     1
100
AcDbLine
 10
2.748511683800822
 20
3.567403976863853
 30
0.0
 11
2.626667979695888
 21
3.922057486320603
 31
0.0
  0
INSERT
  5
23E
330
1F
100
AcDbEntity
  8
BEARINGHOUSINGDIMS
  6
CONTINUOUS
 62
     1
100
AcDbBlockReference
  2
LONGARROW
 10
2.748511683800822
 20
3.567403976863853
 30
0.0
 41
0.125
 42
0.125
 50
108.9605189275395
  0
LINE
  5
23F
330
1F
100
AcDbEntity
  8
BEARINGHOUSING
  6
CENTER
 62
     7
100
AcDbLine
 10
2.99399999783269
 20
3.999999999671089
 30
0.0
 11
2.99399999783269
 21
1.999999999671091
 31
0.0
  0
CIRCLE
  5
240
330
1F
100
AcDbEntity
  8
BEARINGHOUSING
  6
CENTER
 62
     7
100
AcDbCircle
 10
2.993999999999997
 20
3.0
 30
0.0
 40
0.4780000000000001
  0
CIRCLE
  5
241
330
1F
100
AcDbEntity
  8
BEARINGHOUSING
  6
CONTINUOUS
 62
     1
100
AcDbCircle
 10
2.993999999999997
 20
3.0
 30
0.0
 40
0.275
  0
CIRCLE
  5
242
330
1F
100
AcDbEntity
  8
BEARINGHOUSING
  6
CONTINUOUS
 62
     1
100
AcDbCircle
 10
2.993999999999997
 20
3.0
 30
0.0
 40
0.35
  0
CIRCLE
  5
243
330
1F
100
AcDbEntity
  8
BEARINGHOUSING
  6
CONTINUOUS
 62
     1
100
AcDbCircle
 10
2.993999999999997
 20
3.0
 30
0.0
 40
0.6510000000000002
  0
LINE
  5
244
330
1F
100
AcDbEntity
  8
BEARINGHOUSING
  6
CENTER
 62
     7
100
AcDbLine
 10
3.359999997832697
 20
3.43499999967109
 30
0.0
 11
2.627999997832691
 21
3.434999999671091
 31
0.0
  0
CIRCLE
  5
245
330
1F
100
AcDbEntity
  8
BEARINGHOUSING
  6
CONTINUOUS
 62
     1
100
AcDbCircle
 10
2.795999999999997
 20
3.434999999999999
 30
0.0
 40
0.086
  0
CIRCLE
  5
246
330
1F
100
AcDbEntity
  8
BEARINGHOUSING
  6
CONTINUOUS
 62
     1
100
AcDbCircle
 10
3.191999999999997
 20
3.434999999999999
 30
0.0
 40
0.086
  0
CIRCLE
  5
247
330
1F
100
AcDbEntity
  8
BEARINGHOUSING
  6
CONTINUOUS
 62
     1
100
AcDbCircle
 10
3.191999999999997
 20
3.434999999999999
 30
0.0
 40
0.14
  0
LINE
  5
248
330
1F
100
AcDbEntity
  8
BEARINGHOUSING
  6
CENTER
 62
     7
100
AcDbLine
 10
3.191999999999997
 20
3.593999999999999
 30
0.0
 11
3.191999999999997
 21
3.275999999999999
 31
0.0
  0
LINE
  5
249
330
1F
100
AcDbEntity
  8
BEARINGHOUSING
  6
CENTER
 62
     7
100
AcDbLine
 10
2.795861157622094
 20
3.593999999671091
 30
0.0
 11
2.795861157622094
 21
3.275999999671091
 31
0.0
  0
ARC
  5
24A
330
1F
100
AcDbEntity
  8
BEARINGHOUSING
  6
CONTINUOUS
 62
     1
100
AcDbCircle
 10
2.993999997832691
 20
2.999999999671092
 30
0.0
 40
0.5514999999999991
100
AcDbArc
 50
127.8237151847054
 51
52.16603315037974
  0
ARC
  5
24B
330
1F
100
AcDbEntity
  8
BEARINGHOUSING
  6
CONTINUOUS
 62
     1
100
AcDbCircle
 10
2.993999997832693
 20
2.999999999671117
 30
0.0
 40
0.5514999999999747
100
AcDbArc
 50
78.82594892161217
 51
101.1673584941953
  0
LINE
  5
24C
330
1F
100
AcDbEntity
  8
BEARINGHOUSINGDIMS
  6
CENTER
 62
     1
100
AcDbLine
 10
3.181499999999997
 20
3.0
 30
0.0
 11
3.721999999999997
 21
3.0
 31
0.0
  0
LINE
  5
24D
330
1F
100
AcDbEntity
  8
BEARINGHOUSINGDIMS
  6
CENTER
 62
     1
100
AcDbLine
 10
2.806499999999997
 20
3.0
 30
0.0
 11
2.265999999999998
 21
3.0
 31
0.0
  0
LINE
  5
24E
330
1F
100
AcDbEntity
  8
BEARINGHOUSINGDIMS
  6
CENTER
 62
     1
100
AcDbLine
 10
2.993999999999997
 20
3.1875
 30
0.0
 11
2.993999999999997
 21
3.727999999999999
 31
0.0
  0
LINE
  5
24F
330
1F
100
AcDbEntity
  8
BEARINGHOUSINGDIMS
  6
CENTER
 62
     1
100
AcDbLine
 10
2.993999999999997
 20
2.8125
 30
0.0
 11
2.993999999999998
 21
2.272
 31
0.0
  0
INSERT
  5
257
330
1F
100
AcDbEntity
  8
BEARINGHOUSINGDIMS
  6
CENTER
 62
     1
100
AcDbBlockReference
  2
CROSS
 10
2.993999999999997
 20
3.0
 30
0.0
 41
0.125
 42
0.125
  0
LINE
  5
258
330
1F
100
AcDbEntity
  8
BEARINGHOUSINGDIMS
  6
CENTER
 62
     1
100
AcDbLine
 10
3.181499997832691
 20
2.999999999671092
 30
0.0
 11
3.79549999783269
 21
2.999999999671092
 31
0.0
  0
LINE
  5
259
330
1F
100
AcDbEntity
  8
BEARINGHOUSINGDIMS
  6
CENTER
 62
     1
100
AcDbLine
 10
2.806499997832691
 20
2.999999999671092
 30
0.0
 11
2.192499997832692
 21
2.999999999671092
 31
0.0
  0
LINE
  5
25A
330
1F
100
AcDbEntity
  8
BEARINGHOUSINGDIMS
  6
CENTER
 62
     1
100
AcDbLine
 10
2.993999997832691
 20
3.187499999671092
 30
0.0
 11
2.99399999783269
 21
3.801499999671091
 31
0.0
  0
LINE
  5
25B
330
1F
100
AcDbEntity
  8
BEARINGHOUSINGDIMS
  6
CENTER
 62
     1
100
AcDbLine
 10
2.993999997832691
 20
2.812499999671092
 30
0.0
 11
2.993999997832692
 21
2.198499999671093
 31
0.0
  0
INSERT
  5
25C
330
1F
100
AcDbEntity
  8
BEARINGHOUSINGDIMS
  6
CENTER
 62
     1
100
AcDbBlockReference
  2
CROSS
 10
2.993999997832691
 20
2.999999999671092
 30
0.0
 41
0.125
 42
0.125
  0
LINE
  5
25D
330
1F
100
AcDbEntity
  8
BEARINGHOUSINGDIMS
  6
CENTER
 62
     1
100
AcDbLine
 10
3.181499997832691
 20
2.999999999671092
 30
0.0
 11
3.79549999783269
 21
2.999999999671092
 31
0.0
  0
LINE
  5
25E
330
1F
100
AcDbEntity
  8
BEARINGHOUSINGDIMS
  6
CENTER
 62
     1
100
AcDbLine
 10
2.806499997832691
 20
2.999999999671092
 30
0.0
 11
2.192499997832692
 21
2.999999999671092
 31
0.0
  0
LINE
  5
25F
330
1F
100
AcDbEntity
  8
BEARINGHOUSINGDIMS
  6
CENTER
 62
     1
100
AcDbLine
 10
2.993999997832691
 20
3.187499999671092
 30
0.0
 11
2.99399999783269
 21
3.801499999671091
 31
0.0
  0
LINE
  5
260
330
1F
100
AcDbEntity
  8
BEARINGHOUSINGDIMS
  6
CENTER
 62
     1
100
AcDbLine
 10
2.993999997832691
 20
2.812499999671092
 30
0.0
 11
2.993999997832692
 21
2.198499999671093
 31
0.0
  0
INSERT
  5
261
330
1F
100
AcDbEntity
  8
BEARINGHOUSINGDIMS
  6
CENTER
 62
     1
100
AcDbBlockReference
  2
CROSS
 10
2.993999997832691
 20
2.999999999671092
 30
0.0
 41
0.125
 42
0.125
  0
LINE
  5
262
330
1F
100
AcDbEntity
  8
BEARINGHOUSINGDIMS
  6
CENTER
 62
     1
100
AcDbLine
 10
3.181499999999997
 20
3.0
 30
0.0
 11
3.593999999999998
 21
3.0
 31
0.0
  0
LINE
  5
263
330
1F
100
AcDbEntity
  8
BEARINGHOUSINGDIMS
  6
CENTER
 62
     1
100
AcDbLine
 10
2.806499999999997
 20
3.0
 30
0.0
 11
2.393999999999997
 21
3.0
 31
0.0
  0
LINE
  5
264
330
1F
100
AcDbEntity
  8
BEARINGHOUSINGDIMS
  6
CENTER
 62
     1
100
AcDbLine
 10
2.993999999999997
 20
3.1875
 30
0.0
 11
2.993999999999997
 21
3.6
 31
0.0
  0
LINE
  5
265
330
1F
100
AcDbEntity
  8
BEARINGHOUSINGDIMS
  6
CENTER
 62
     1
100
AcDbLine
 10
2.993999999999997
 20
2.8125
 30
0.0
 11
2.993999999999998
 21
2.399999999999999
 31
0.0
  0
INSERT
  5
266
330
1F
100
AcDbEntity
  8
BEARINGHOUSINGDIMS
  6
CENTER
 62
     1
100
AcDbBlockReference
  2
CROSS
 10
2.993999999999997
 20
3.0
 30
0.0
 41
0.125
 42
0.125
  0
LINE
  5
267
330
1F
100
AcDbEntity
  8
BEARINGHOUSINGDIMS
  6
CENTER
 62
     1
100
AcDbLine
 10
3.181499999999997
 20
3.0
 30
0.0
 11
3.721999999999997
 21
3.0
 31
0.0
  0
LINE
  5
268
330
1F
100
AcDbEntity
  8
BEARINGHOUSINGDIMS
  6
CENTER
 62
     1
100
AcDbLine
 10
2.806499999999997
 20
3.0
 30
0.0
 11
2.265999999999998
 21
3.0
 31
0.0
  0
LINE
  5
269
330
1F
100
AcDbEntity
  8
BEARINGHOUSINGDIMS
  6
CENTER
 62
     1
100
AcDbLine
 10
2.993999999999997
 20
3.1875
 30
0.0
 11
2.993999999999997
 21
3.727999999999999
 31
0.0
  0
LINE
  5
26A
330
1F
100
AcDbEntity
  8
BEARINGHOUSINGDIMS
  6
CENTER
 62
     1
100
AcDbLine
 10
2.993999999999997
 20
2.8125
 30
0.0
 11
2.993999999999998
 21
2.272
 31
0.0
  0
INSERT
  5
26B
330
1F
100
AcDbEntity
  8
BEARINGHOUSINGDIMS
  6
CENTER
 62
     1
100
AcDbBlockReference
  2
CROSS
 10
2.993999999999997
 20
3.0
 30
0.0
 41
0.125
 42
0.125
  0
LINE
  5
26C
330
1F
100
AcDbEntity
  8
BEARINGHOUSINGDIMS
  6
CENTER
 62
     7
100
AcDbLine
 10
3.181499999999997
 20
3.0
 30
0.0
 11
3.894999999999998
 21
3.0
 31
0.0
  0
LINE
  5
26D
330
1F
100
AcDbEntity
  8
BEARINGHOUSINGDIMS
  6
CENTER
 62
     7
100
AcDbLine
 10
2.806499999999997
 20
3.0
 30
0.0
 11
2.092999999999997
 21
3.0
 31
0.0
  0
LINE
  5
26E
330
1F
100
AcDbEntity
  8
BEARINGHOUSINGDIMS
  6
CENTER
 62
     7
100
AcDbLine
 10
2.993999999999997
 20
3.1875
 30
0.0
 11
2.993999999999997
 21
3.901
 31
0.0
  0
LINE
  5
26F
330
1F
100
AcDbEntity
  8
BEARINGHOUSINGDIMS
  6
CENTER
 62
     7
100
AcDbLine
 10
2.993999999999997
 20
2.8125
 30
0.0
 11
2.993999999999998
 21
2.098999999999999
 31
0.0
  0
INSERT
  5
270
330
1F
100
AcDbEntity
  8
BEARINGHOUSINGDIMS
  6
CENTER
 62
     7
100
AcDbBlockReference
  2
CROSS
 10
2.993999999999997
 20
3.0
 30
0.0
 41
0.125
 42
0.125
  0
CIRCLE
  5
271
330
1F
100
AcDbEntity
  8
BEARINGHOUSING
  6
CONTINUOUS
 62
     1
100
AcDbCircle
 10
2.795861157622094
 20
3.434999999671091
 30
0.0
 40
0.14
  0
TEXT
  5
272
330
1F
100
AcDbEntity
  8
BEARINGHOUSINGDIMS
  6
CONTINUOUS
 62
     1
100
AcDbText
 10
1.397596529632184
 20
3.854675107430986
 30
0.0
 40
0.125
  1
ø 0.2800"
  7
ARIAL
 72
     1
 11
1.734534247725579
 21
3.917175107430986
 31
0.0
100
AcDbText
 73
     2
  0
LINE
  5
273
330
1F
100
AcDbEntity
  8
BEARINGHOUSINGDIMS
  6
CONTINUOUS
 62
     1
100
AcDbLine
 10
2.668349412927728
 20
3.492799264069514
 30
0.0
 11
2.326800096782105
 21
3.647618722279577
 31
0.0
  0
LINE
  5
274
330
1F
100
AcDbEntity
  8
BEARINGHOUSINGDIMS
  6
CONTINUOUS
 62
     1
100
AcDbLine
 10
2.326800096782105
 20
3.647618722279577
 30
0.0
 11
1.951800096782105
 21
3.647618722279577
 31
0.0
  0
INSERT
  5
275
330
1F
100
AcDbEntity
  8
BEARINGHOUSINGDIMS
  6
CONTINUOUS
 62
     1
100
AcDbBlockReference
  2
LONGARROW
 10
2.668349412927728
 20
3.492799264069514
 30
0.0
 41
0.125
 42
0.125
 50
155.6158876670778
  0
LINE
  5
276
330
1F
100
AcDbEntity
  8
BEARINGHOUSINGDIMS
  6
CONTINUOUS
 62
     1
100
AcDbLine
 10
2.795999999999997
 20
3.434999999999999
 30
0.0
 11
2.420999999999997
 21
3.434999999999999
 31
0.0
  0
TEXT
  5
277
330
1F
100
AcDbEntity
  8
BEARINGHOUSINGDIMS
  6
CONTINUOUS
 62
     1
100
AcDbText
 10
1.256371584607322
 20
3.581770467078392
 30
0.0
 40
0.125
  1
ø 0.1720"
  7
ARIAL
 72
     1
 11
1.593309302700717
 21
3.644270467078392
 31
0.0
100
AcDbText
 73
     2
  0
LINE
  5
278
330
1F
100
AcDbEntity
  8
BEARINGHOUSINGDIMS
  6
CONTINUOUS
 62
     1
100
AcDbLine
 10
2.2755
 20
2.999999969011941
 30
0.0
 11
1.743999997832691
 21
2.999999969011941
 31
0.0
  0
LINE
  5
279
330
1F
100
AcDbEntity
  8
BEARINGHOUSINGDIMS
  6
CONTINUOUS
 62
     1
100
AcDbLine
 10
2.2755
 20
3.434999999671091
 30
0.0
 11
1.74399999783269
 21
3.434999999671091
 31
0.0
  0
LINE
  5
27A
330
1F
100
AcDbEntity
  8
BEARINGHOUSINGDIMS
  6
CONTINUOUS
 62
     1
100
AcDbLine
 10
1.993999997832691
 20
2.999999969011941
 30
0.0
 11
1.993999997832692
 21
2.624999969011941
 31
0.0
  0
INSERT
  5
27B
330
1F
100
AcDbEntity
  8
BEARINGHOUSINGDIMS
  6
CONTINUOUS
 62
     1
100
AcDbBlockReference
  2
LONGARROW
 10
1.993999997832691
 20
2.999999969011941
 30
0.0
 41
0.125
 42
0.125
 50
270.0
  0
TEXT
  5
27C
330
1F
100
AcDbEntity
  8
BEARINGHOUSINGDIMS
  6
CONTINUOUS
 62
     1
100
AcDbText
 10
4.336027154424191
 20
3.646249845059703
 30
0.0
 40
0.125
  1
0.4800"
  7
ARIAL
 72
     1
 11
4.603371448540092
 21
3.708749845059703
 31
0.0
100
AcDbText
 73
     2
  0
LINE
  5
27D
330
1F
100
AcDbEntity
  8
BEARINGHOUSINGDIMS
  6
CONTINUOUS
 62
     1
100
AcDbLine
 10
4.777000000000001
 20
2.759999845059703
 30
0.0
 11
4.353371448540094
 21
2.759999845059703
 31
0.0
  0
LINE
  5
27E
330
1F
100
AcDbEntity
  8
BEARINGHOUSINGDIMS
  6
CONTINUOUS
 62
     1
100
AcDbLine
 10
4.777000000000001
 20
3.239999845059703
 30
0.0
 11
4.353371448540093
 21
3.239999845059703
 31
0.0
  0
LINE
  5
27F
330
1F
100
AcDbEntity
  8
BEARINGHOUSINGDIMS
  6
CONTINUOUS
 62
     1
100
AcDbLine
 10
4.603371448540094
 20
2.759999845059703
 30
0.0
 11
4.603371448540094
 21
2.384999845059703
 31
0.0
  0
LINE
  5
280
330
1F
100
AcDbEntity
  8
BEARINGHOUSINGDIMS
  6
CONTINUOUS
 62
     1
100
AcDbLine
 10
4.603371448540093
 20
3.239999845059703
 30
0.0
 11
4.603371448540093
 21
3.614999845059703
 31
0.0
  0
INSERT
  5
281
330
1F
100
AcDbEntity
  8
BEARINGHOUSINGDIMS
  6
CONTINUOUS
 62
     1
100
AcDbBlockReference
  2
LONGARROW
 10
4.603371448540094
 20
2.759999845059703
 30
0.0
 41
0.125
 42
0.125
 50
270.0
  0
INSERT
  5
282
330
1F
100
AcDbEntity
  8
BEARINGHOUSINGDIMS
  6
CONTINUOUS
 62
     1
100
AcDbBlockReference
  2
LONGARROW
 10
4.603371448540093
 20
3.239999845059703
 30
0.0
 41
0.125
 42
0.125
 50
90.00000000000005
  0
TEXT
  5
283
330
1F
100
AcDbEntity
  8
BEARINGHOUSINGDIMS
  6
CONTINUOUS
 62
     1
100
AcDbText
 10
3.69793383204356
 20
3.685249999999999
 30
0.0
 40
0.125
  1
0.5580"
  7
ARIAL
 72
     1
 11
3.965278126159461
 21
3.747749999999999
 31
0.0
100
AcDbText
 73
     2
  0
LINE
  5
284
330
1F
100
AcDbEntity
  8
BEARINGHOUSINGDIMS
  6
CONTINUOUS
 62
     1
100
AcDbLine
 10
4.689
 20
2.721
 30
0.0
 11
3.715278126159462
 21
2.721
 31
0.0
  0
LINE
  5
285
330
1F
100
AcDbEntity
  8
BEARINGHOUSINGDIMS
  6
CONTINUOUS
 62
     1
100
AcDbLine
 10
4.689
 20
3.278999999999999
 30
0.0
 11
3.715278126159461
 21
3.278999999999999
 31
0.0
  0
LINE
  5
286
330
1F
100
AcDbEntity
  8
BEARINGHOUSINGDIMS
  6
CONTINUOUS
 62
     1
100
AcDbLine
 10
3.965278126159462
 20
2.721
 30
0.0
 11
3.965278126159462
 21
2.346
 31
0.0
  0
LINE
  5
287
330
1F
100
AcDbEntity
  8
BEARINGHOUSINGDIMS
  6
CONTINUOUS
 62
     1
100
AcDbLine
 10
3.965278126159461
 20
3.278999999999999
 30
0.0
 11
3.965278126159461
 21
3.653999999999999
 31
0.0
  0
INSERT
  5
288
330
1F
100
AcDbEntity
  8
BEARINGHOUSINGDIMS
  6
CONTINUOUS
 62
     1
100
AcDbBlockReference
  2
LONGARROW
 10
3.965278126159462
 20
2.721
 30
0.0
 41
0.125
 42
0.125
 50
270.0
  0
INSERT
  5
289
330
1F
100
AcDbEntity
  8
BEARINGHOUSINGDIMS
  6
CONTINUOUS
 62
     1
100
AcDbBlockReference
  2
LONGARROW
 10
3.965278126159461
 20
3.278999999999999
 30
0.0
 41
0.125
 42
0.125
 50
90.00000000000005
  0
TEXT
  5
28A
330
1F
100
AcDbEntity
  8
BEARINGHOUSING
  6
CONTINUOUS
 62
     7
100
AcDbText
 10
4.077717995047182
 20
1.764615763546798
 30
0.0
 40
0.125
  1
0.1655"
  7
ARIAL
 72
     1
 11
4.345062289163083
 21
1.827115763546798
 31
0.0
100
AcDbText
 73
     2
  0
LINE
  5
28B
330
1F
100
AcDbEntity
  8
BEARINGHOUSING
  6
CONTINUOUS
 62
     7
100
AcDbLine
 10
5.286578729405612
 20
2.40457881773399
 30
0.0
 11
5.286578729405612
 21
1.577115763546798
 31
0.0
  0
LINE
  5
28C
330
1F
100
AcDbEntity
  8
BEARINGHOUSING
  6
CONTINUOUS
 62
     7
100
AcDbLine
 10
5.121078729405612
 20
2.596
 30
0.0
 11
5.121078729405612
 21
1.577115763546798
 31
0.0
  0
LINE
  5
28D
330
1F
100
AcDbEntity
  8
BEARINGHOUSING
  6
CONTINUOUS
 62
     7
100
AcDbLine
 10
5.286578729405612
 20
1.827115763546798
 30
0.0
 11
5.661578729405612
 21
1.827115763546798
 31
0.0
  0
LINE
  5
28E
330
1F
100
AcDbEntity
  8
BEARINGHOUSING
  6
CONTINUOUS
 62
     7
100
AcDbLine
 10
5.121078729405612
 20
1.827115763546798
 30
0.0
 11
4.746078729405612
 21
1.827115763546798
 31
0.0
  0
INSERT
  5
28F
330
1F
100
AcDbEntity
  8
BEARINGHOUSING
  6
CONTINUOUS
 62
     7
100
AcDbBlockReference
  2
LONGARROW
 10
5.286578729405612
 20
1.827115763546798
 30
0.0
 41
0.125
 42
0.125
  0
INSERT
  5
290
330
1F
100
AcDbEntity
  8
BEARINGHOUSING
  6
CONTINUOUS
 62
     7
100
AcDbBlockReference
  2
LONGARROW
 10
5.121078729405612
 20
1.827115763546798
 30
0.0
 41
0.125
 42
0.125
 50
180.0
  0
TEXT
  5
291
330
1F
100
AcDbEntity
  8
LEADSCREW
  6
CONTINUOUS
 62
     7
100
AcDbText
 10
5.452655705884101
 20
7.233249999999999
 30
0.0
 40
0.125
  1
0.4710"
  7
ARIAL
 72
     1
 11
5.720000000000002
 21
7.295749999999999
 31
0.0
100
AcDbText
 73
     2
  0
LINE
  5
292
330
1F
100
AcDbEntity
  8
LEADSCREW
  6
CONTINUOUS
 62
     7
100
AcDbLine
 10
4.845000000000001
 20
8.2355
 30
0.0
 11
5.970000000000001
 21
8.2355
 31
0.0
  0
LINE
  5
293
330
1F
100
AcDbEntity
  8
LEADSCREW
  6
CONTINUOUS
 62
     7
100
AcDbLine
 10
4.845000000000001
 20
7.764499999999999
 30
0.0
 11
5.970000000000002
 21
7.764499999999999
 31
0.0
  0
LINE
  5
294
330
1F
100
AcDbEntity
  8
LEADSCREW
  6
CONTINUOUS
 62
     7
100
AcDbLine
 10
5.720000000000001
 20
8.2355
 30
0.0
 11
5.720000000000001
 21
8.6105
 31
0.0
  0
LINE
  5
295
330
1F
100
AcDbEntity
  8
LEADSCREW
  6
CONTINUOUS
 62
     7
100
AcDbLine
 10
5.720000000000002
 20
7.764499999999999
 30
0.0
 11
5.720000000000002
 21
7.389499999999999
 31
0.0
  0
INSERT
  5
296
330
1F
100
AcDbEntity
  8
LEADSCREW
  6
CONTINUOUS
 62
     7
100
AcDbBlockReference
  2
LONGARROW
 10
5.720000000000001
 20
8.2355
 30
0.0
 41
0.125
 42
0.125
 50
90.00000000000007
  0
INSERT
  5
297
330
1F
100
AcDbEntity
  8
LEADSCREW
  6
CONTINUOUS
 62
     7
100
AcDbBlockReference
  2
LONGARROW
 10
5.720000000000002
 20
7.764499999999999
 30
0.0
 41
0.125
 42
0.125
 50
270.0
  0
TEXT
  5
298
330
1F
100
AcDbEntity
  8
LEADSCREW
  6
CONTINUOUS
 62
     7
100
AcDbText
 10
4.8526557058841
 20
7.195750000000002
 30
0.0
 40
0.125
  1
0.5460"
  7
ARIAL
 72
     1
 11
5.120000000000001
 21
7.258250000000002
 31
0.0
100
AcDbText
 73
     2
  0
LINE
  5
299
330
1F
100
AcDbEntity
  8
LEADSCREW
  6
CONTINUOUS
 62
     7
100
AcDbLine
 10
4.245
 20
8.273000000000001
 30
0.0
 11
5.37
 21
8.273000000000001
 31
0.0
  0
LINE
  5
29A
330
1F
100
AcDbEntity
  8
LEADSCREW
  6
CONTINUOUS
 62
     7
100
AcDbLine
 10
4.245
 20
7.727000000000002
 30
0.0
 11
5.370000000000001
 21
7.727000000000002
 31
0.0
  0
LINE
  5
29B
330
1F
100
AcDbEntity
  8
LEADSCREW
  6
CONTINUOUS
 62
     7
100
AcDbLine
 10
5.12
 20
8.273000000000001
 30
0.0
 11
5.12
 21
8.648000000000001
 31
0.0
  0
LINE
  5
29C
330
1F
100
AcDbEntity
  8
LEADSCREW
  6
CONTINUOUS
 62
     7
100
AcDbLine
 10
5.120000000000001
 20
7.727000000000002
 30
0.0
 11
5.120000000000001
 21
7.352000000000002
 31
0.0
  0
INSERT
  5
29D
330
1F
100
AcDbEntity
  8
LEADSCREW
  6
CONTINUOUS
 62
     7
100
AcDbBlockReference
  2
LONGARROW
 10
5.12
 20
8.273000000000001
 30
0.0
 41
0.125
 42
0.125
 50
90.00000000000007
  0
INSERT
  5
29E
330
1F
100
AcDbEntity
  8
LEADSCREW
  6
CONTINUOUS
 62
     7
100
AcDbBlockReference
  2
LONGARROW
 10
5.120000000000001
 20
7.727000000000002
 30
0.0
 41
0.125
 42
0.125
 50
270.0
  0
ENDSEC
  0
SECTION
  2
OBJECTS
  0
DICTIONARY
  5
C
330
0
100
AcDbDictionary
  3
ACAD_GROUP
350
D
  3
ACAD_PLOTSTYLENAME
350
E
  3
ACAD_MLINESTYLE
350
17
  3
ACAD_PLOTSETTINGS
350
19
  3
ACAD_LAYOUT
350
1A
  3
ACDBHEADERROUNDTRIPXREC
350
29F
  0
DICTIONARY
  5
2C2
330
1F
100
AcDbDictionary
280
     1
  3
ACAD_LAYOUTSELFREF
360
2C3
  0
DICTIONARY
  5
2C0
330
1B
100
AcDbDictionary
280
     1
  3
ACAD_LAYOUTSELFREF
360
2C1
  0
DICTIONARY
  5
D
102
{ACAD_REACTORS
330
C
102
}
330
C
100
AcDbDictionary
  3
*A1
350
CC
  0
ACDBDICTIONARYWDFLT
  5
E
102
{ACAD_REACTORS
330
C
102
}
330
C
100
AcDbDictionary
281
     1
  3
Normal
350
F
100
AcDbDictionaryWithDefault
340
F
  0
DICTIONARY
  5
17
102
{ACAD_REACTORS
330
C
102
}
330
C
100
AcDbDictionary
  3
STANDARD
350
18
  0
DICTIONARY
  5
19
102
{ACAD_REACTORS
330
C
102
}
330
C
100
AcDbDictionary
  0
DICTIONARY
  5
1A
102
{ACAD_REACTORS
330
C
102
}
330
C
100
AcDbDictionary
  0
DICTIONARY
  5
29F
102
{ACAD_REACTORS
330
C
102
}
330
C
100
AcDbDictionary
  3
TSTACKALIGN
350
2A0
  3
TSTACKSIZE
350
2A1
  3
HYPERLINKBASE
350
2A2
  3
STYLESHEET
350
2A3
  3
LAYOUTDICT
350
2A4
  3
PLOTSETDICT
350
2A5
  3
PLOTSTYLNAMDICT
350
2A6
  3
LWETCUNION
350
2A7
  3
INSUNITS
350
2A8
  3
CEPSNTYPE
350
2A9
  3
FINGERPRINTGUID
350
2AA
  3
VERSIONGUID
350
2AB
  3
PSVPSCALE
350
2AC
  3
DIMSTYLEDATA
350
2AD
  3
PUCSORTHOREF
350
2AE
  3
PUCSORTHOVIEW
350
2AF
  3
PUCSBASE
350
2B0
  3
PUCSORGTOP
350
2B1
  3
PUCSORGBOTTOM
350
2B2
  3
PUCSORGLEFT
350
2B3
  3
PUCSORGRIGHT
350
2B4
  3
PUCSORGFRONT
350
2B5
  3
PUCSORGBACK
350
2B6
  3
UCSORTHOREF
350
2B7
  3
UCSORTHOVIEW
350
2B8
  3
UCSBASE
350
2B9
  3
UCSORGTOP
350
2BA
  3
UCSORGBOTTOM
350
2BB
  3
UCSORGLEFT
350
2BC
  3
UCSORGRIGHT
350
2BD
  3
UCSORGFRONT
350
2BE
  3
UCSORGBACK
350
2BF
  0
XRECORD
  5
2C3
102
{ACAD_REACTORS
330
2C2
102
}
330
2C2
100
AcDbXrecord
340
1F
  0
XRECORD
  5
2C1
102
{ACAD_REACTORS
330
2C0
102
}
330
2C0
100
AcDbXrecord
340
1B
  0
GROUP
  5
CC
102
{ACAD_REACTORS
330
D
102
}
330
D
100
AcDbGroup
300

 70
     0
 71
     1
340
CD
340
CE
340
CF
340
D0
340
D1
340
D2
  0
ACDBPLACEHOLDER
  5
F
102
{ACAD_REACTORS
330
E
102
}
330
E
100
AcDbPlaceHolder
280
     0
  0
MLINESTYLE
  5
18
102
{ACAD_REACTORS
330
17
102
}
330
17
100
AcDbMlineStyle
  2
STANDARD
 70
     0
  3

 62
   256
 51
90.0
 52
90.0
 71
     2
 49
0.5
 62
   256
  6
BYLAYER
 49
-0.5
 62
   256
  6
BYLAYER
  0
XRECORD
  5
2A0
102
{ACAD_REACTORS
330
29F
102
}
330
29F
100
AcDbXrecord
 90
        1
  0
XRECORD
  5
2A1
102
{ACAD_REACTORS
330
29F
102
}
330
29F
100
AcDbXrecord
 90
       70
  0
XRECORD
  5
2A2
102
{ACAD_REACTORS
330
29F
102
}
330
29F
100
AcDbXrecord
  1

  0
XRECORD
  5
2A3
102
{ACAD_REACTORS
330
29F
102
}
330
29F
100
AcDbXrecord
  1

  0
XRECORD
  5
2A4
102
{ACAD_REACTORS
330
29F
102
}
330
29F
100
AcDbXrecord
340
1A
  0
XRECORD
  5
2A5
102
{ACAD_REACTORS
330
29F
102
}
330
29F
100
AcDbXrecord
340
19
  0
XRECORD
  5
2A6
102
{ACAD_REACTORS
330
29F
102
}
330
29F
100
AcDbXrecord
340
E
  0
XRECORD
  5
2A7
102
{ACAD_REACTORS
330
29F
102
}
330
29F
100
AcDbXrecord
 90
    10781
  0
XRECORD
  5
2A8
102
{ACAD_REACTORS
330
29F
102
}
330
29F
100
AcDbXrecord
 90
        0
  0
XRECORD
  5
2A9
102
{ACAD_REACTORS
330
29F
102
}
330
29F
100
AcDbXrecord
 90
        0
  0
XRECORD
  5
2AA
102
{ACAD_REACTORS
330
29F
102
}
330
29F
100
AcDbXrecord
  1
{EC2954E0-01BF-11D4-AD49-9C8B10C10000}
  0
XRECORD
  5
2AB
102
{ACAD_REACTORS
330
29F
102
}
330
29F
100
AcDbXrecord
  1
{EC2954E1-01BF-11D4-AD49-9C8B10C10000}
  0
XRECORD
  5
2AC
102
{ACAD_REACTORS
330
29F
102
}
330
29F
100
AcDbXrecord
 40
0.0
  0
XRECORD
  5
2AD
102
{ACAD_REACTORS
330
29F
102
}
330
29F
100
AcDbXrecord
1000
DSTYLE
1002
{
1070
   277
 70
     4
1002
}
  0
XRECORD
  5
2AE
102
{ACAD_REACTORS
330
29F
102
}
330
29F
100
AcDbXrecord
340
0
  0
XRECORD
  5
2AF
102
{ACAD_REACTORS
330
29F
102
}
330
29F
100
AcDbXrecord
 70
     0
  0
XRECORD
  5
2B0
102
{ACAD_REACTORS
330
29F
102
}
330
29F
100
AcDbXrecord
340
0
  0
XRECORD
  5
2B1
102
{ACAD_REACTORS
330
29F
102
}
330
29F
100
AcDbXrecord
 10
0.0
 20
0.0
 30
0.0
  0
XRECORD
  5
2B2
102
{ACAD_REACTORS
330
29F
102
}
330
29F
100
AcDbXrecord
 10
0.0
 20
0.0
 30
0.0
  0
XRECORD
  5
2B3
102
{ACAD_REACTORS
330
29F
102
}
330
29F
100
AcDbXrecord
 10
0.0
 20
0.0
 30
0.0
  0
XRECORD
  5
2B4
102
{ACAD_REACTORS
330
29F
102
}
330
29F
100
AcDbXrecord
 10
0.0
 20
0.0
 30
0.0
  0
XRECORD
  5
2B5
102
{ACAD_REACTORS
330
29F
102
}
330
29F
100
AcDbXrecord
 10
0.0
 20
0.0
 30
0.0
  0
XRECORD
  5
2B6
102
{ACAD_REACTORS
330
29F
102
}
330
29F
100
AcDbXrecord
 10
0.0
 20
0.0
 30
0.0
  0
XRECORD
  5
2B7
102
{ACAD_REACTORS
330
29F
102
}
330
29F
100
AcDbXrecord
340
0
  0
XRECORD
  5
2B8
102
{ACAD_REACTORS
330
29F
102
}
330
29F
100
AcDbXrecord
 70
     0
  0
XRECORD
  5
2B9
102
{ACAD_REACTORS
330
29F
102
}
330
29F
100
AcDbXrecord
340
0
  0
XRECORD
  5
2BA
102
{ACAD_REACTORS
330
29F
102
}
330
29F
100
AcDbXrecord
 10
0.0
 20
0.0
 30
0.0
  0
XRECORD
  5
2BB
102
{ACAD_REACTORS
330
29F
102
}
330
29F
100
AcDbXrecord
 10
0.0
 20
0.0
 30
0.0
  0
XRECORD
  5
2BC
102
{ACAD_REACTORS
330
29F
102
}
330
29F
100
AcDbXrecord
 10
0.0
 20
0.0
 30
0.0
  0
XRECORD
  5
2BD
102
{ACAD_REACTORS
330
29F
102
}
330
29F
100
AcDbXrecord
 10
0.0
 20
0.0
 30
0.0
  0
XRECORD
  5
2BE
102
{ACAD_REACTORS
330
29F
102
}
330
29F
100
AcDbXrecord
 10
0.0
 20
0.0
 30
0.0
  0
XRECORD
  5
2BF
102
{ACAD_REACTORS
330
29F
102
}
330
29F
100
AcDbXrecord
 10
0.0
 20
0.0
 30
0.0
  0
ENDSEC
  0
EOF
