  0
SECTION
  2
HEADER
  9
$ACADVER
  1
AC1012
  9
$DWGCODEPAGE
  3
dos850
  9
$INSBASE
 10
0.0
 20
0.0
 30
0.0
  9
$EXTMIN
 10
3.977005
 20
3.074949
 30
0.0
  9
$EXTMAX
 10
8.963337
 20
6.296242
 30
0.0
  9
$LIMMIN
 10
0.0
 20
0.0
  9
$LIMMAX
 10
0.0
 20
0.0
  9
$ORTHOMODE
 70
     0
  9
$REGENMODE
 70
     1
  9
$FILLMODE
 70
     1
  9
$QTEXTMODE
 70
     0
  9
$MIRRTEXT
 70
     1
  9
$DRAGMODE
 70
     2
  9
$LTSCALE
 40
1.0
  9
$OSMODE
 70
     0
  9
$ATTMODE
 70
     1
  9
$TEXTSIZE
 40
0.2
  9
$TRACEWID
 40
0.05
  9
$TEXTSTYLE
  7
STANDARD
  9
$CLAYER
  8
0
  9
$CELTYPE
  6
CONTINUOUS
  9
$CECOLOR
 62
   256
  9
$CELTSCALE
 40
1.0
  9
$DELOBJ
 70
     1
  9
$DISPSILH
 70
     0
  9
$DIMSCALE
 40
1.0
  9
$DIMASZ
 40
0.18
  9
$DIMEXO
 40
0.0625
  9
$DIMDLI
 40
0.38
  9
$DIMRND
 40
0.0
  9
$DIMDLE
 40
0.0
  9
$DIMEXE
 40
0.18
  9
$DIMTP
 40
0.0
  9
$DIMTM
 40
0.0
  9
$DIMTXT
 40
0.18
  9
$DIMCEN
 40
0.09
  9
$DIMTSZ
 40
0.0
  9
$DIMTOL
 70
     0
  9
$DIMLIM
 70
     0
  9
$DIMTIH
 70
     1
  9
$DIMTOH
 70
     1
  9
$DIMSE1
 70
     0
  9
$DIMSE2
 70
     0
  9
$DIMTAD
 70
     0
  9
$DIMZIN
 70
     0
  9
$DIMBLK
  1

  9
$DIMASO
 70
     1
  9
$DIMSHO
 70
     1
  9
$DIMPOST
  1

  9
$DIMAPOST
  1

  9
$DIMALT
 70
     0
  9
$DIMALTD
 70
     2
  9
$DIMALTF
 40
25.4
  9
$DIMLFAC
 40
1.0
  9
$DIMTOFL
 70
     0
  9
$DIMTVP
 40
0.0
  9
$DIMTIX
 70
     0
  9
$DIMSOXD
 70
     0
  9
$DIMSAH
 70
     0
  9
$DIMBLK1
  1

  9
$DIMBLK2
  1

  9
$DIMSTYLE
  2
STANDARD
  9
$DIMCLRD
 70
     0
  9
$DIMCLRE
 70
     0
  9
$DIMCLRT
 70
     0
  9
$DIMTFAC
 40
1.0
  9
$DIMGAP
 40
0.09
  9
$DIMJUST
 70
     0
  9
$DIMSD1
 70
     0
  9
$DIMSD2
 70
     0
  9
$DIMTOLJ
 70
     1
  9
$DIMTZIN
 70
     0
  9
$DIMALTZ
 70
     0
  9
$DIMALTTZ
 70
     0
  9
$DIMFIT
 70
     3
  9
$DIMUPT
 70
     0
  9
$DIMUNIT
 70
     2
  9
$DIMDEC
 70
     4
  9
$DIMTDEC
 70
     4
  9
$DIMALTU
 70
     2
  9
$DIMALTTD
 70
     2
  9
$DIMTXSTY
  7
STANDARD
  9
$DIMAUNIT
 70
     0
  9
$LUNITS
 70
     2
  9
$LUPREC
 70
     4
  9
$SKETCHINC
 40
0.1
  9
$FILLETRAD
 40
0.0
  9
$AUNITS
 70
     0
  9
$AUPREC
 70
     0
  9
$MENU
  1
acad
  9
$ELEVATION
 40
0.0
  9
$PELEVATION
 40
0.0
  9
$THICKNESS
 40
0.0
  9
$LIMCHECK
 70
     0
  9
$BLIPMODE
 70
     1
  9
$CHAMFERA
 40
0.0
  9
$CHAMFERB
 40
0.0
  9
$CHAMFERC
 40
0.0
  9
$CHAMFERD
 40
0.0
  9
$SKPOLY
 70
     0
  9
$TDCREATE
 40
0.000000000
  9
$TDUPDATE
 40
0.000000000
  9
$TDINDWG
 40
0.0000000000
  9
$TDUSRTIMER
 40
0.0000000000
  9
$USRTIMER
 70
     1
  9
$ANGBASE
 50
0.0
  9
$ANGDIR
 70
     0
  9
$PDMODE
 70
     0
  9
$PDSIZE
 40
0.0
  9
$PLINEWID
 40
0.0
  9
$COORDS
 70
     0
  9
$SPLFRAME
 70
     0
  9
$SPLINETYPE
 70
     6
  9
$SPLINESEGS
 70
     8
  9
$ATTDIA
 70
     0
  9
$ATTREQ
 70
     1
  9
$HANDLING
 70
     1
  9
$HANDSEED
  5
18F
  9
$SURFTAB1
 70
     6
  9
$SURFTAB2
 70
     6
  9
$SURFTYPE
 70
     6
  9
$SURFU
 70
     6
  9
$SURFV
 70
     6
  9
$UCSNAME
  2

  9
$UCSORG
 10
0.0
 20
0.0
 30
0.0
  9
$UCSXDIR
 10
1.0
 20
0.0
 30
0.0
  9
$UCSYDIR
 10
0.0
 20
1.0
 30
0.0
  9
$PUCSNAME
  2

  9
$PUCSORG
 10
0.0
 20
0.0
 30
0.0
  9
$PUCSXDIR
 10
1.0
 20
0.0
 30
0.0
  9
$PUCSYDIR
 10
0.0
 20
1.0
 30
0.0
  9
$USERI1
 70
     0
  9
$USERI2
 70
     0
  9
$USERI3
 70
     0
  9
$USERI4
 70
     0
  9
$USERI5
 70
     0
  9
$USERR1
 40
0.0
  9
$USERR2
 40
0.0
  9
$USERR3
 40
0.0
  9
$USERR4
 40
0.0
  9
$USERR5
 40
0.0
  9
$WORLDVIEW
 70
     1
  9
$SHADEDGE
 70
     3
  9
$SHADEDIF
 70
    70
  9
$TILEMODE
 70
     1
  9
$MAXACTVP
 70
    16
  9
$PINSBASE
 10
0.0
 20
0.0
 30
0.0
  9
$PLIMCHECK
 70
     0
  9
$PEXTMIN
 10
1.000000E+20
 20
1.000000E+20
 30
1.000000E+20
  9
$PEXTMAX
 10
-1.000000E+20
 20
-1.000000E+20
 30
-1.000000E+20
  9
$PLIMMIN
 10
0.0
 20
0.0
  9
$PLIMMAX
 10
12.0
 20
9.0
  9
$UNITMODE
 70
     0
  9
$VISRETAIN
 70
     0
  9
$PLINEGEN
 70
     0
  9
$PSLTSCALE
 70
     0
  9
$TREEDEPTH
 70
  3020
  9
$PICKSTYLE
 70
     1
  9
$CMLSTYLE
  2
STANDARD
  9
$CMLJUST
 70
     0
  9
$CMLSCALE
 40
1.0
  9
$SAVEIMAGES
 70
     0
  0
ENDSEC
  0
SECTION
  2
CLASSES
  0
CLASS
  1
LWPOLYLINE
  2
AcDbPolyline
  3
"AutoCAD"
 90
        0
280
     0
281
     1
  0
CLASS
  1
IMAGE
  2
AcDbRasterImage
  3
ISM
 90
      127
280
     0
281
     1
  0
CLASS
  1
OLE2FRAME
  2
AcDbOle2Frame
  3
""
 90
        0
280
     0
281
     1
  0
CLASS
  1
HATCH
  2
AcDbHatch
  3
"ACAD_SEDONA"
 90
        0
280
     0
281
     1
  0
CLASS
  1
DICTIONARYVAR
  2
AcDbDictionaryVar
  3
"AutoCAD"
 90
        0
280
     0
281
     0
  0
CLASS
  1
RASTERVARIABLES
  2
AcDbRasterVariables
  3
ISM
 90
        0
280
     0
281
     0
  0
CLASS
  1
IMAGEDEF
  2
AcDbRasterImageDef
  3
ISM
 90
        0
280
     0
281
     0
  0
CLASS
  1
IMAGEDEF_REACTOR
  2
AcDbRasterImageDefReactor
  3
ISM
 90
        1
280
     0
281
     0
  0
CLASS
  1
IDBUFFER
  2
AcDbIdBuffer
  3
"Acad"
 90
        0
280
     0
281
     0
  0
CLASS
  1
SPATIAL_FILTER
  2
AcDbSpatialFilter
  3
"Acad"
 90
        0
280
     0
281
     0
  0
CLASS
  1
XRECORD
  2
AcDbXrecord
  3
"<Built In>"
 90
        0
280
     0
281
     0
  0
CLASS
  1
SORTENTSTABLE
  2
AcDbSortentsTable
  3
"AutoCAD"
 90
        0
280
     0
281
     0
  0
CLASS
  1
LAYER_INDEX
  2
AcDbLayerIndex
  3
"Acad"
 90
        0
280
     0
281
     0
  0
CLASS
  1
SPATIAL_INDEX
  2
AcDbSpatialIndex
  3
"Acad"
 90
        0
280
     0
281
     0
  0
CLASS
  1
OBJECT_PTR
  2
CAseDLPNTableRecord
  3
"ASE-LPNTableRecord"
 90
        1
280
     0
281
     0
  0
ENDSEC
  0
SECTION
  2
TABLES
  0
TABLE
  2
VPORT
  5
7
100
AcDbSymbolTable
 70
     2
  0
VPORT
  5
15
100
AcDbSymbolTableRecord
100
AcDbViewportTableRecord
  2
*ACTIVE
 70
     0
 10
0.0
 20
0.0
 11
1.0
 21
1.0
 12
6.591288
 22
4.579184
 13
0.0
 23
0.0
 14
1.0
 24
1.0
 15
0.0
 25
0.0
 16
0.0
 26
0.0
 36
1.0
 17
0.0
 27
0.0
 37
0.0
 40
9.158369
 41
0.688564
 42
50.0
 43
0.0
 44
0.0
 50
0.0
 51
0.0
 71
     0
 72
   100
 73
     1
 74
     1
 75
     0
 76
     0
 77
     0
 78
     0
  0
VPORT
  5
2B
100
AcDbSymbolTableRecord
100
AcDbViewportTableRecord
  2
DCADVPORT
 70
     0
 10
3.977005
 20
3.074949
 11
8.963337
 21
6.296242
 12
6.21
 22
9.02
 13
0.0
 23
0.0
 14
1.0
 24
1.0
 15
0.0
 25
0.0
 16
0.0
 26
0.0
 36
1.0
 17
0.0
 27
0.0
 37
0.0
 40
18.04
 41
0.688564
 42
50.0
 43
1.0
 44
1.0
 50
0.0
 51
0.0
 71
     0
 72
   100
 73
     1
 74
     1
 75
     0
 76
     0
 77
     0
 78
     0
  0
ENDTAB
  0
TABLE
  2
LTYPE
  5
4
100
AcDbSymbolTable
 70
    15
  0
LTYPE
  5
11
100
AcDbSymbolTableRecord
100
AcDbLinetypeTableRecord
  2
BYBLOCK
 70
     0
  3

 72
    65
 73
     0
 40
0.0
  0
LTYPE
  5
12
100
AcDbSymbolTableRecord
100
AcDbLinetypeTableRecord
  2
BYLAYER
 70
     0
  3

 72
    65
 73
     0
 40
0.0
  0
LTYPE
  5
13
100
AcDbSymbolTableRecord
100
AcDbLinetypeTableRecord
  2
CONTINUOUS
 70
     0
  3
Solid line
 72
    65
 73
     0
 40
0.0
  0
LTYPE
  5
1E
100
AcDbSymbolTableRecord
100
AcDbLinetypeTableRecord
  2
CONTINUOUS
 70
     0
  3
Solid line
 72
    65
 73
     0
 40
0.0
  0
LTYPE
  5
1F
100
AcDbSymbolTableRecord
100
AcDbLinetypeTableRecord
  2
BORDER
 70
    64
  3
__ __ . __ __ . __ __ . __ __ . __ __ . __ __ .
 72
    65
 73
     6
 40
1.75
 49
0.5
 74
     0
 49
-0.25
 74
     0
 49
0.5
 74
     0
 49
-0.25
 74
     0
 49
0.0
 74
     0
 49
-0.25
 74
     0
  0
LTYPE
  5
20
100
AcDbSymbolTableRecord
100
AcDbLinetypeTableRecord
  2
BORDER2
 70
    64
  3
__.__.__.__.__.__.__.__.__.__.__.__.__.__.__.__
 72
    65
 73
     6
 40
0.875
 49
0.25
 74
     0
 49
-0.125
 74
     0
 49
0.25
 74
     0
 49
-0.125
 74
     0
 49
0.0
 74
     0
 49
-0.125
 74
     0
  0
LTYPE
  5
21
100
AcDbSymbolTableRecord
100
AcDbLinetypeTableRecord
  2
CENTER
 70
    64
  3
____ _ ____ _ ____ _ ____ _ ____ _ ____ _ ____ 
 72
    65
 73
     4
 40
2.0
 49
1.25
 74
     0
 49
-0.25
 74
     0
 49
0.25
 74
     0
 49
-0.25
 74
     0
  0
LTYPE
  5
22
100
AcDbSymbolTableRecord
100
AcDbLinetypeTableRecord
  2
DASHDOT
 70
    64
  3
__ . __ . __ . __ . __ . __ . __ . __ . __ . __
 72
    65
 73
     4
 40
1.0
 49
0.5
 74
     0
 49
-0.25
 74
     0
 49
0.0
 74
     0
 49
-0.25
 74
     0
  0
LTYPE
  5
23
100
AcDbSymbolTableRecord
100
AcDbLinetypeTableRecord
  2
DASHDOT2
 70
    64
  3
_._._._._._._._._._._._._._._._._._._._._._._._
 72
    65
 73
     4
 40
0.5
 49
0.25
 74
     0
 49
-0.125
 74
     0
 49
0.0
 74
     0
 49
-0.125
 74
     0
  0
LTYPE
  5
24
100
AcDbSymbolTableRecord
100
AcDbLinetypeTableRecord
  2
DASHED
 70
    64
  3
__ __ __ __ __ __ __ __ __ __ __ __ __ __ __ __
 72
    65
 73
     2
 40
0.75
 49
0.5
 74
     0
 49
-0.25
 74
     0
  0
LTYPE
  5
25
100
AcDbSymbolTableRecord
100
AcDbLinetypeTableRecord
  2
DIVIDE
 70
    64
  3
____ . . ____ . . ____ . . ____ . . ____ . . __
 72
    65
 73
     6
 40
1.25
 49
0.5
 74
     0
 49
-0.25
 74
     0
 49
0.0
 74
     0
 49
-0.25
 74
     0
 49
0.0
 74
     0
 49
-0.25
 74
     0
  0
LTYPE
  5
26
100
AcDbSymbolTableRecord
100
AcDbLinetypeTableRecord
  2
DIVIDE2
 70
    64
  3
__..__..__..__..__..__..__..__..__..__..__..__.
 72
    65
 73
     6
 40
0.625
 49
0.25
 74
     0
 49
-0.125
 74
     0
 49
0.0
 74
     0
 49
-0.125
 74
     0
 49
0.0
 74
     0
 49
-0.125
 74
     0
  0
LTYPE
  5
27
100
AcDbSymbolTableRecord
100
AcDbLinetypeTableRecord
  2
DOT
 70
    64
  3
. . . . . . . . . . . . . . . . . . . . . . . .
 72
    65
 73
     2
 40
0.25
 49
0.0
 74
     0
 49
-0.25
 74
     0
  0
LTYPE
  5
28
100
AcDbSymbolTableRecord
100
AcDbLinetypeTableRecord
  2
HIDDEN
 70
    64
  3
__ __ __ __ __ __ __ __ __ __ __ __ __ __ __ __
 72
    65
 73
     2
 40
0.375
 49
0.25
 74
     0
 49
-0.125
 74
     0
  0
LTYPE
  5
29
100
AcDbSymbolTableRecord
100
AcDbLinetypeTableRecord
  2
PHANTOM
 70
    64
  3
______  __  __  ______  __  __  ______  __  __ 
 72
    65
 73
     6
 40
2.5
 49
1.25
 74
     0
 49
-0.25
 74
     0
 49
0.25
 74
     0
 49
-0.25
 74
     0
 49
0.25
 74
     0
 49
-0.25
 74
     0
  0
ENDTAB
  0
TABLE
  2
LAYER
  5
2
100
AcDbSymbolTable
 70
     2
  0
LAYER
  5
14
100
AcDbSymbolTableRecord
100
AcDbLayerTableRecord
  2
0
 70
     0
 62
     7
  6
CONTINUOUS
  0
LAYER
  5
2A
100
AcDbSymbolTableRecord
100
AcDbLayerTableRecord
  2
1
 70
     0
 62
   250
  6
CONTINUOUS
  0
ENDTAB
  0
TABLE
  2
STYLE
  5
3
100
AcDbSymbolTable
 70
     2
  0
STYLE
  5
17
100
AcDbSymbolTableRecord
100
AcDbTextStyleTableRecord
  2
STANDARD
 70
     0
 40
0.0
 41
1.0
 50
0.0
 71
     0
 42
0.0
  3
txt
  4

  0
STYLE
  5
1D
100
AcDbSymbolTableRecord
100
AcDbTextStyleTableRecord
  2
BIGFONT
 70
    64
 40
3.0
 41
1.0
 50
0.0
 71
     0
 42
0.2
  3

  4
BIGFONT
  0
ENDTAB
  0
TABLE
  2
VIEW
  5
5
100
AcDbSymbolTable
 70
     0
  0
ENDTAB
  0
TABLE
  2
UCS
  5
6
100
AcDbSymbolTable
 70
     0
  0
ENDTAB
  0
TABLE
  2
APPID
  5
8
100
AcDbSymbolTable
 70
     1
  0
APPID
  5
16
100
AcDbSymbolTableRecord
100
AcDbRegAppTableRecord
  2
ACAD
 70
     0
  0
ENDTAB
  0
TABLE
  2
DIMSTYLE
  5
9
100
AcDbSymbolTable
 70
     1
  0
DIMSTYLE
105
18
100
AcDbSymbolTableRecord
100
AcDbDimStyleTableRecord
  2
STANDARD
 70
     0
  3

  4

  5

  6

  7

 40
1.0
 41
0.18
 42
0.0625
 43
0.38
 44
0.18
 45
0.0
 46
0.0
 47
0.0
 48
0.0
140
0.18
141
0.09
142
0.0
143
25.4
144
1.0
145
0.0
146
1.0
147
0.09
 71
     0
 72
     0
 73
     1
 74
     1
 75
     0
 76
     0
 77
     0
 78
     0
170
     0
171
     2
172
     0
173
     0
174
     0
175
     0
176
     0
177
     0
178
     0
270
     2
271
     4
272
     4
273
     2
274
     2
340
17
275
     0
280
     0
281
     0
282
     0
283
     1
284
     0
285
     0
286
     0
287
     0
288
     0
  0
ENDTAB
  0
TABLE
  2
BLOCK_RECORD
  5
1
100
AcDbSymbolTable
 70
     0
  0
BLOCK_RECORD
  5
A
100
AcDbSymbolTableRecord
100
AcDbBlockTableRecord
  2
*MODEL_SPACE
  0
BLOCK_RECORD
  5
B
100
AcDbSymbolTableRecord
100
AcDbBlockTableRecord
  2
*PAPER_SPACE
  0
ENDTAB
  0
ENDSEC
  0
SECTION
  2
BLOCKS
  0
BLOCK
  5
D
100
AcDbEntity
  8
0
100
AcDbBlockBegin
  2
*MODEL_SPACE
 70
     0
 10
0.0
 20
0.0
 30
0.0
  3
*MODEL_SPACE
  1

  0
ENDBLK
  5
E
100
AcDbEntity
  8
0
100
AcDbBlockEnd
  0
BLOCK
  5
F
100
AcDbEntity
 67
     1
  8
0
100
AcDbBlockBegin
  2
*PAPER_SPACE
 70
     0
 10
0.0
 20
0.0
 30
0.0
  3
*PAPER_SPACE
  1

  0
ENDBLK
  5
10
100
AcDbEntity
 67
     1
  8
0
100
AcDbBlockEnd
  0
ENDSEC
  0
SECTION
  2
ENTITIES
  0
CIRCLE
  5
2C
100
AcDbEntity
  8
1
  6
CONTINUOUS
 62
   250
 48
0.120755
100
AcDbCircle
 10
-7.822957
 20
4.644497
 30
0.0
 40
0.675
210
0.0
220
0.0
230
-1.0
  0
CIRCLE
  5
2D
100
AcDbEntity
  8
1
  6
CONTINUOUS
 62
   250
 48
0.120755
100
AcDbCircle
 10
-7.822957
 20
4.644497
 30
0.0
 40
1.125
210
0.0
220
0.0
230
-1.0
  0
POLYLINE
  5
2E
100
AcDbEntity
  8
1
  6
CONTINUOUS
 62
   250
 48
0.120755
100
AcDb2dPolyline
 66
     1
 10
0.0
 20
0.0
 30
0.0
 70
   128
  0
VERTEX
  5
2F
100
AcDbEntity
  8
1
  6
CONTINUOUS
 62
   250
 48
0.120755
100
AcDbVertex
100
AcDb2dVertex
 10
5.822957
 20
4.644497
 30
0.0
 40
0.0
 41
0.0
  0
VERTEX
  5
30
100
AcDbEntity
  8
1
  6
CONTINUOUS
 62
   250
 48
0.120755
100
AcDbVertex
100
AcDb2dVertex
 10
5.822957
 20
4.644497
 30
0.0
 40
0.0
 41
0.0
  0
SEQEND
  5
31
100
AcDbEntity
  8
0
  0
POLYLINE
  5
32
100
AcDbEntity
  8
1
  6
CONTINUOUS
 62
   250
 48
0.120755
100
AcDb2dPolyline
 66
     1
 10
0.0
 20
0.0
 30
0.0
 70
   128
  0
VERTEX
  5
33
100
AcDbEntity
  8
1
  6
CONTINUOUS
 62
   250
 48
0.120755
100
AcDbVertex
100
AcDb2dVertex
 10
4.822957
 20
5.444497
 30
0.0
 40
0.0
 41
0.0
  0
VERTEX
  5
34
100
AcDbEntity
  8
1
  6
CONTINUOUS
 62
   250
 48
0.120755
100
AcDbVertex
100
AcDb2dVertex
 10
4.822957
 20
3.844497
 30
0.0
 40
0.0
 41
0.0
  0
SEQEND
  5
35
100
AcDbEntity
  8
0
  0
POLYLINE
  5
36
100
AcDbEntity
  8
1
  6
CONTINUOUS
 62
   250
 48
0.120755
100
AcDb2dPolyline
 66
     1
 10
0.0
 20
0.0
 30
0.0
 70
   128
  0
VERTEX
  5
37
100
AcDbEntity
  8
1
  6
CONTINUOUS
 62
   250
 48
0.120755
100
AcDbVertex
100
AcDb2dVertex
 10
5.822957
 20
5.769497
 30
0.0
 40
0.0
 41
0.0
  0
VERTEX
  5
38
100
AcDbEntity
  8
1
  6
CONTINUOUS
 62
   250
 48
0.120755
100
AcDbVertex
100
AcDb2dVertex
 10
5.572957
 20
5.769497
 30
0.0
 40
0.0
 41
0.0
  0
SEQEND
  5
39
100
AcDbEntity
  8
0
  0
POLYLINE
  5
3A
100
AcDbEntity
  8
1
  6
CONTINUOUS
 62
   250
 48
0.120755
100
AcDb2dPolyline
 66
     1
 10
0.0
 20
0.0
 30
0.0
 70
   128
  0
VERTEX
  5
3B
100
AcDbEntity
  8
1
  6
CONTINUOUS
 62
   250
 48
0.120755
100
AcDbVertex
100
AcDb2dVertex
 10
5.822957
 20
3.519497
 30
0.0
 40
0.0
 41
0.0
  0
VERTEX
  5
3C
100
AcDbEntity
  8
1
  6
CONTINUOUS
 62
   250
 48
0.120755
100
AcDbVertex
100
AcDb2dVertex
 10
5.572957
 20
3.519497
 30
0.0
 40
0.0
 41
0.0
  0
SEQEND
  5
3D
100
AcDbEntity
  8
0
  0
POLYLINE
  5
3E
100
AcDbEntity
  8
1
  6
CONTINUOUS
 62
   250
 48
0.120755
100
AcDb2dPolyline
 66
     1
 10
0.0
 20
0.0
 30
0.0
 70
   128
  0
VERTEX
  5
3F
100
AcDbEntity
  8
1
  6
CONTINUOUS
 62
   250
 48
0.120755
100
AcDbVertex
100
AcDb2dVertex
 10
4.822957
 20
5.444497
 30
0.0
 40
0.0
 41
0.0
  0
VERTEX
  5
40
100
AcDbEntity
  8
1
  6
CONTINUOUS
 62
   250
 48
0.120755
100
AcDbVertex
100
AcDb2dVertex
 10
4.922957
 20
5.444497
 30
0.0
 40
0.0
 41
0.0
  0
SEQEND
  5
41
100
AcDbEntity
  8
0
  0
POLYLINE
  5
42
100
AcDbEntity
  8
1
  6
CONTINUOUS
 62
   250
 48
0.120755
100
AcDb2dPolyline
 66
     1
 10
0.0
 20
0.0
 30
0.0
 70
   128
  0
VERTEX
  5
43
100
AcDbEntity
  8
1
  6
CONTINUOUS
 62
   250
 48
0.120755
100
AcDbVertex
100
AcDb2dVertex
 10
4.822957
 20
3.844497
 30
0.0
 40
0.0
 41
0.0
  0
VERTEX
  5
44
100
AcDbEntity
  8
1
  6
CONTINUOUS
 62
   250
 48
0.120755
100
AcDbVertex
100
AcDb2dVertex
 10
4.922957
 20
3.844497
 30
0.0
 40
0.0
 41
0.0
  0
SEQEND
  5
45
100
AcDbEntity
  8
0
  0
POLYLINE
  5
46
100
AcDbEntity
  8
1
  6
CONTINUOUS
 62
   250
 48
0.120755
100
AcDb2dPolyline
 66
     1
 10
0.0
 20
0.0
 30
0.0
 70
   128
  0
VERTEX
  5
47
100
AcDbEntity
  8
1
  6
CONTINUOUS
 62
   250
 48
0.120755
100
AcDbVertex
100
AcDb2dVertex
 10
4.922957
 20
5.444497
 30
0.0
 40
0.0
 41
0.0
  0
VERTEX
  5
48
100
AcDbEntity
  8
1
  6
CONTINUOUS
 62
   250
 48
0.120755
100
AcDbVertex
100
AcDb2dVertex
 10
4.922957
 20
5.644497
 30
0.0
 40
0.0
 41
0.0
  0
SEQEND
  5
49
100
AcDbEntity
  8
0
  0
POLYLINE
  5
4A
100
AcDbEntity
  8
1
  6
CONTINUOUS
 62
   250
 48
0.120755
100
AcDb2dPolyline
 66
     1
 10
0.0
 20
0.0
 30
0.0
 70
   128
  0
VERTEX
  5
4B
100
AcDbEntity
  8
1
  6
CONTINUOUS
 62
   250
 48
0.120755
100
AcDbVertex
100
AcDb2dVertex
 10
4.922957
 20
3.844497
 30
0.0
 40
0.0
 41
0.0
  0
VERTEX
  5
4C
100
AcDbEntity
  8
1
  6
CONTINUOUS
 62
   250
 48
0.120755
100
AcDbVertex
100
AcDb2dVertex
 10
4.922957
 20
3.644497
 30
0.0
 40
0.0
 41
0.0
  0
SEQEND
  5
4D
100
AcDbEntity
  8
0
  0
POLYLINE
  5
4E
100
AcDbEntity
  8
1
  6
CONTINUOUS
 62
   250
 48
0.120755
100
AcDb2dPolyline
 66
     1
 10
0.0
 20
0.0
 30
0.0
 70
   128
  0
VERTEX
  5
4F
100
AcDbEntity
  8
1
  6
CONTINUOUS
 62
   250
 48
0.120755
100
AcDbVertex
100
AcDb2dVertex
 10
4.922957
 20
3.644497
 30
0.0
 40
0.0
 41
0.0
  0
VERTEX
  5
50
100
AcDbEntity
  8
1
  6
CONTINUOUS
 62
   250
 48
0.120755
100
AcDbVertex
100
AcDb2dVertex
 10
4.997957
 20
3.644497
 30
0.0
 40
0.0
 41
0.0
  0
SEQEND
  5
51
100
AcDbEntity
  8
0
  0
POLYLINE
  5
52
100
AcDbEntity
  8
1
  6
CONTINUOUS
 62
   250
 48
0.120755
100
AcDb2dPolyline
 66
     1
 10
0.0
 20
0.0
 30
0.0
 70
   128
  0
VERTEX
  5
53
100
AcDbEntity
  8
1
  6
CONTINUOUS
 62
   250
 48
0.120755
100
AcDbVertex
100
AcDb2dVertex
 10
4.922957
 20
5.644497
 30
0.0
 40
0.0
 41
0.0
  0
VERTEX
  5
54
100
AcDbEntity
  8
1
  6
CONTINUOUS
 62
   250
 48
0.120755
100
AcDbVertex
100
AcDb2dVertex
 10
4.997957
 20
5.644497
 30
0.0
 40
0.0
 41
0.0
  0
SEQEND
  5
55
100
AcDbEntity
  8
0
  0
ARC
  5
56
100
AcDbEntity
  8
1
  6
CONTINUOUS
 62
   250
 48
0.120755
100
AcDbCircle
 10
-5.285456
 20
5.706997
 30
0.0
 40
0.294215
210
0.0
220
0.0
230
-1.0
100
AcDbArc
 50
167.735217
 51
347.735217
  0
ARC
  5
57
100
AcDbEntity
  8
1
  6
CONTINUOUS
 62
   250
 48
0.120755
100
AcDbCircle
 10
-5.285456
 20
3.581997
 30
0.0
 40
0.294215
210
0.0
220
0.0
230
-1.0
100
AcDbArc
 50
12.264767
 51
192.264767
  0
POLYLINE
  5
58
100
AcDbEntity
  8
1
  6
CONTINUOUS
 62
   250
 48
0.120755
100
AcDb2dPolyline
 66
     1
 10
0.0
 20
0.0
 30
0.0
 70
   128
  0
VERTEX
  5
59
100
AcDbEntity
  8
1
  6
CONTINUOUS
 62
   250
 48
0.120755
100
AcDbVertex
100
AcDb2dVertex
 10
7.822957
 20
5.269497
 30
0.0
 40
0.0
 41
0.0
  0
VERTEX
  5
5A
100
AcDbEntity
  8
1
  6
CONTINUOUS
 62
   250
 48
0.120755
100
AcDbVertex
100
AcDb2dVertex
 10
7.822957
 20
5.269497
 30
0.0
 40
0.0
 41
0.0
  0
SEQEND
  5
5B
100
AcDbEntity
  8
0
  0
POLYLINE
  5
5C
100
AcDbEntity
  8
1
  6
CONTINUOUS
 62
   250
 48
0.120755
100
AcDb2dPolyline
 66
     1
 10
0.0
 20
0.0
 30
0.0
 70
   128
  0
VERTEX
  5
5D
100
AcDbEntity
  8
1
  6
CONTINUOUS
 62
   250
 48
0.120755
100
AcDbVertex
100
AcDb2dVertex
 10
8.009957
 20
5.269497
 30
0.0
 40
0.0
 41
0.0
  0
VERTEX
  5
5E
100
AcDbEntity
  8
1
  6
CONTINUOUS
 62
   250
 48
0.120755
100
AcDbVertex
100
AcDb2dVertex
 10
8.009957
 20
5.769497
 30
0.0
 40
0.0
 41
0.0
  0
VERTEX
  5
5F
100
AcDbEntity
  8
1
  6
CONTINUOUS
 62
   250
 48
0.120755
100
AcDbVertex
100
AcDb2dVertex
 10
7.635956
 20
5.769497
 30
0.0
 40
0.0
 41
0.0
  0
VERTEX
  5
60
100
AcDbEntity
  8
1
  6
CONTINUOUS
 62
   250
 48
0.120755
100
AcDbVertex
100
AcDb2dVertex
 10
7.635956
 20
5.269497
 30
0.0
 40
0.0
 41
0.0
  0
VERTEX
  5
61
100
AcDbEntity
  8
1
  6
CONTINUOUS
 62
   250
 48
0.120755
100
AcDbVertex
100
AcDb2dVertex
 10
8.009957
 20
5.269497
 30
0.0
 40
0.0
 41
0.0
  0
SEQEND
  5
62
100
AcDbEntity
  8
0
  0
POLYLINE
  5
63
100
AcDbEntity
  8
1
  6
CONTINUOUS
 62
   250
 48
0.120755
100
AcDb2dPolyline
 66
     1
 10
0.0
 20
0.0
 30
0.0
 70
   128
  0
VERTEX
  5
64
100
AcDbEntity
  8
1
  6
CONTINUOUS
 62
   250
 48
0.120755
100
AcDbVertex
100
AcDb2dVertex
 10
7.564465
 20
5.243476
 30
0.0
 40
0.0
 41
0.0
  0
VERTEX
  5
65
100
AcDbEntity
  8
1
  6
CONTINUOUS
 62
   250
 48
0.120755
100
AcDbVertex
100
AcDb2dVertex
 10
7.24307
 20
5.626498
 30
0.0
 40
0.0
 41
0.0
  0
VERTEX
  5
66
100
AcDbEntity
  8
1
  6
CONTINUOUS
 62
   250
 48
0.120755
100
AcDbVertex
100
AcDb2dVertex
 10
6.95657
 20
5.386095
 30
0.0
 40
0.0
 41
0.0
  0
VERTEX
  5
67
100
AcDbEntity
  8
1
  6
CONTINUOUS
 62
   250
 48
0.120755
100
AcDbVertex
100
AcDb2dVertex
 10
7.277963
 20
5.003073
 30
0.0
 40
0.0
 41
0.0
  0
VERTEX
  5
68
100
AcDbEntity
  8
1
  6
CONTINUOUS
 62
   250
 48
0.120755
100
AcDbVertex
100
AcDb2dVertex
 10
7.564465
 20
5.243476
 30
0.0
 40
0.0
 41
0.0
  0
SEQEND
  5
69
100
AcDbEntity
  8
0
  0
POLYLINE
  5
6A
100
AcDbEntity
  8
1
  6
CONTINUOUS
 62
   250
 48
0.120755
100
AcDb2dPolyline
 66
     1
 10
0.0
 20
0.0
 30
0.0
 70
   128
  0
VERTEX
  5
6B
100
AcDbEntity
  8
1
  6
CONTINUOUS
 62
   250
 48
0.120755
100
AcDbVertex
100
AcDb2dVertex
 10
7.239924
 20
4.937186
 30
0.0
 40
0.0
 41
0.0
  0
VERTEX
  5
6C
100
AcDbEntity
  8
1
  6
CONTINUOUS
 62
   250
 48
0.120755
100
AcDbVertex
100
AcDb2dVertex
 10
6.74752
 20
5.02401
 30
0.0
 40
0.0
 41
0.0
  0
VERTEX
  5
6D
100
AcDbEntity
  8
1
  6
CONTINUOUS
 62
   250
 48
0.120755
100
AcDbVertex
100
AcDb2dVertex
 10
6.682576
 20
4.655691
 30
0.0
 40
0.0
 41
0.0
  0
VERTEX
  5
6E
100
AcDbEntity
  8
1
  6
CONTINUOUS
 62
   250
 48
0.120755
100
AcDbVertex
100
AcDb2dVertex
 10
7.17498
 20
4.568868
 30
0.0
 40
0.0
 41
0.0
  0
VERTEX
  5
6F
100
AcDbEntity
  8
1
  6
CONTINUOUS
 62
   250
 48
0.120755
100
AcDbVertex
100
AcDb2dVertex
 10
7.239924
 20
4.937186
 30
0.0
 40
0.0
 41
0.0
  0
SEQEND
  5
70
100
AcDbEntity
  8
0
  0
POLYLINE
  5
71
100
AcDbEntity
  8
1
  6
CONTINUOUS
 62
   250
 48
0.120755
100
AcDb2dPolyline
 66
     1
 10
0.0
 20
0.0
 30
0.0
 70
   128
  0
VERTEX
  5
72
100
AcDbEntity
  8
1
  6
CONTINUOUS
 62
   250
 48
0.120755
100
AcDbVertex
100
AcDb2dVertex
 10
7.18819
 20
4.493944
 30
0.0
 40
0.0
 41
0.0
  0
VERTEX
  5
73
100
AcDbEntity
  8
1
  6
CONTINUOUS
 62
   250
 48
0.120755
100
AcDbVertex
100
AcDb2dVertex
 10
6.755178
 20
4.243944
 30
0.0
 40
0.0
 41
0.0
  0
VERTEX
  5
74
100
AcDbEntity
  8
1
  6
CONTINUOUS
 62
   250
 48
0.120755
100
AcDbVertex
100
AcDb2dVertex
 10
6.942178
 20
3.92005
 30
0.0
 40
0.0
 41
0.0
  0
VERTEX
  5
75
100
AcDbEntity
  8
1
  6
CONTINUOUS
 62
   250
 48
0.120755
100
AcDbVertex
100
AcDb2dVertex
 10
7.375191
 20
4.17005
 30
0.0
 40
0.0
 41
0.0
  0
VERTEX
  5
76
100
AcDbEntity
  8
1
  6
CONTINUOUS
 62
   250
 48
0.120755
100
AcDbVertex
100
AcDb2dVertex
 10
7.18819
 20
4.493944
 30
0.0
 40
0.0
 41
0.0
  0
SEQEND
  5
77
100
AcDbEntity
  8
0
  0
POLYLINE
  5
78
100
AcDbEntity
  8
1
  6
CONTINUOUS
 62
   250
 48
0.120755
100
AcDb2dPolyline
 66
     1
 10
0.0
 20
0.0
 30
0.0
 70
   128
  0
VERTEX
  5
79
100
AcDbEntity
  8
1
  6
CONTINUOUS
 62
   250
 48
0.120755
100
AcDbVertex
100
AcDb2dVertex
 10
7.433471
 20
4.121147
 30
0.0
 40
0.0
 41
0.0
  0
VERTEX
  5
7A
100
AcDbEntity
  8
1
  6
CONTINUOUS
 62
   250
 48
0.120755
100
AcDbVertex
100
AcDb2dVertex
 10
7.262461
 20
3.6513
 30
0.0
 40
0.0
 41
0.0
  0
VERTEX
  5
7B
100
AcDbEntity
  8
1
  6
CONTINUOUS
 62
   250
 48
0.120755
100
AcDbVertex
100
AcDb2dVertex
 10
7.613906
 20
3.523385
 30
0.0
 40
0.0
 41
0.0
  0
VERTEX
  5
7C
100
AcDbEntity
  8
1
  6
CONTINUOUS
 62
   250
 48
0.120755
100
AcDbVertex
100
AcDb2dVertex
 10
7.784917
 20
3.993231
 30
0.0
 40
0.0
 41
0.0
  0
VERTEX
  5
7D
100
AcDbEntity
  8
1
  6
CONTINUOUS
 62
   250
 48
0.120755
100
AcDbVertex
100
AcDb2dVertex
 10
7.433471
 20
4.121147
 30
0.0
 40
0.0
 41
0.0
  0
SEQEND
  5
7E
100
AcDbEntity
  8
0
  0
POLYLINE
  5
7F
100
AcDbEntity
  8
1
  6
CONTINUOUS
 62
   250
 48
0.120755
100
AcDb2dPolyline
 66
     1
 10
0.0
 20
0.0
 30
0.0
 70
   128
  0
VERTEX
  5
80
100
AcDbEntity
  8
1
  6
CONTINUOUS
 62
   250
 48
0.120755
100
AcDbVertex
100
AcDb2dVertex
 10
7.860996
 20
3.993231
 30
0.0
 40
0.0
 41
0.0
  0
VERTEX
  5
81
100
AcDbEntity
  8
1
  6
CONTINUOUS
 62
   250
 48
0.120755
100
AcDbVertex
100
AcDb2dVertex
 10
8.032007
 20
3.523385
 30
0.0
 40
0.0
 41
0.0
  0
VERTEX
  5
82
100
AcDbEntity
  8
1
  6
CONTINUOUS
 62
   250
 48
0.120755
100
AcDbVertex
100
AcDb2dVertex
 10
8.383452
 20
3.6513
 30
0.0
 40
0.0
 41
0.0
  0
VERTEX
  5
83
100
AcDbEntity
  8
1
  6
CONTINUOUS
 62
   250
 48
0.120755
100
AcDbVertex
100
AcDb2dVertex
 10
8.212442
 20
4.121147
 30
0.0
 40
0.0
 41
0.0
  0
VERTEX
  5
84
100
AcDbEntity
  8
1
  6
CONTINUOUS
 62
   250
 48
0.120755
100
AcDbVertex
100
AcDb2dVertex
 10
7.860996
 20
3.993231
 30
0.0
 40
0.0
 41
0.0
  0
SEQEND
  5
85
100
AcDbEntity
  8
0
  0
POLYLINE
  5
86
100
AcDbEntity
  8
1
  6
CONTINUOUS
 62
   250
 48
0.120755
100
AcDb2dPolyline
 66
     1
 10
0.0
 20
0.0
 30
0.0
 70
   128
  0
VERTEX
  5
87
100
AcDbEntity
  8
1
  6
CONTINUOUS
 62
   250
 48
0.120755
100
AcDbVertex
100
AcDb2dVertex
 10
8.270723
 20
4.17005
 30
0.0
 40
0.0
 41
0.0
  0
VERTEX
  5
88
100
AcDbEntity
  8
1
  6
CONTINUOUS
 62
   250
 48
0.120755
100
AcDbVertex
100
AcDb2dVertex
 10
8.703735
 20
3.92005
 30
0.0
 40
0.0
 41
0.0
  0
VERTEX
  5
89
100
AcDbEntity
  8
1
  6
CONTINUOUS
 62
   250
 48
0.120755
100
AcDbVertex
100
AcDb2dVertex
 10
8.890736
 20
4.243944
 30
0.0
 40
0.0
 41
0.0
  0
VERTEX
  5
8A
100
AcDbEntity
  8
1
  6
CONTINUOUS
 62
   250
 48
0.120755
100
AcDbVertex
100
AcDb2dVertex
 10
8.457722
 20
4.493944
 30
0.0
 40
0.0
 41
0.0
  0
VERTEX
  5
8B
100
AcDbEntity
  8
1
  6
CONTINUOUS
 62
   250
 48
0.120755
100
AcDbVertex
100
AcDb2dVertex
 10
8.270723
 20
4.17005
 30
0.0
 40
0.0
 41
0.0
  0
SEQEND
  5
8C
100
AcDbEntity
  8
0
  0
POLYLINE
  5
8D
100
AcDbEntity
  8
1
  6
CONTINUOUS
 62
   250
 48
0.120755
100
AcDb2dPolyline
 66
     1
 10
0.0
 20
0.0
 30
0.0
 70
   128
  0
VERTEX
  5
8E
100
AcDbEntity
  8
1
  6
CONTINUOUS
 62
   250
 48
0.120755
100
AcDbVertex
100
AcDb2dVertex
 10
8.470933
 20
4.568867
 30
0.0
 40
0.0
 41
0.0
  0
VERTEX
  5
8F
100
AcDbEntity
  8
1
  6
CONTINUOUS
 62
   250
 48
0.120755
100
AcDbVertex
100
AcDb2dVertex
 10
8.963337
 20
4.655691
 30
0.0
 40
0.0
 41
0.0
  0
VERTEX
  5
90
100
AcDbEntity
  8
1
  6
CONTINUOUS
 62
   250
 48
0.120755
100
AcDbVertex
100
AcDb2dVertex
 10
8.898393
 20
5.02401
 30
0.0
 40
0.0
 41
0.0
  0
VERTEX
  5
91
100
AcDbEntity
  8
1
  6
CONTINUOUS
 62
   250
 48
0.120755
100
AcDbVertex
100
AcDb2dVertex
 10
8.405989
 20
4.937186
 30
0.0
 40
0.0
 41
0.0
  0
VERTEX
  5
92
100
AcDbEntity
  8
1
  6
CONTINUOUS
 62
   250
 48
0.120755
100
AcDbVertex
100
AcDb2dVertex
 10
8.470933
 20
4.568867
 30
0.0
 40
0.0
 41
0.0
  0
SEQEND
  5
93
100
AcDbEntity
  8
0
  0
POLYLINE
  5
94
100
AcDbEntity
  8
1
  6
CONTINUOUS
 62
   250
 48
0.120755
100
AcDb2dPolyline
 66
     1
 10
0.0
 20
0.0
 30
0.0
 70
   128
  0
VERTEX
  5
95
100
AcDbEntity
  8
1
  6
CONTINUOUS
 62
   250
 48
0.120755
100
AcDbVertex
100
AcDb2dVertex
 10
8.36795
 20
5.003073
 30
0.0
 40
0.0
 41
0.0
  0
VERTEX
  5
96
100
AcDbEntity
  8
1
  6
CONTINUOUS
 62
   250
 48
0.120755
100
AcDbVertex
100
AcDb2dVertex
 10
8.689343
 20
5.386095
 30
0.0
 40
0.0
 41
0.0
  0
VERTEX
  5
97
100
AcDbEntity
  8
1
  6
CONTINUOUS
 62
   250
 48
0.120755
100
AcDbVertex
100
AcDb2dVertex
 10
8.402843
 20
5.626498
 30
0.0
 40
0.0
 41
0.0
  0
VERTEX
  5
98
100
AcDbEntity
  8
1
  6
CONTINUOUS
 62
   250
 48
0.120755
100
AcDbVertex
100
AcDb2dVertex
 10
8.081449
 20
5.243475
 30
0.0
 40
0.0
 41
0.0
  0
VERTEX
  5
99
100
AcDbEntity
  8
1
  6
CONTINUOUS
 62
   250
 48
0.120755
100
AcDbVertex
100
AcDb2dVertex
 10
8.36795
 20
5.003073
 30
0.0
 40
0.0
 41
0.0
  0
SEQEND
  5
9A
100
AcDbEntity
  8
0
  0
POLYLINE
  5
9B
100
AcDbEntity
  8
1
  6
CONTINUOUS
 62
   250
 48
0.120755
100
AcDb2dPolyline
 66
     1
 10
0.0
 20
0.0
 30
0.0
 70
   128
  0
VERTEX
  5
9C
100
AcDbEntity
  8
1
  6
CONTINUOUS
 62
   250
 48
0.120755
100
AcDbVertex
100
AcDb2dVertex
 10
5.822957
 20
5.769497
 30
0.0
 40
0.0
 41
0.0
  0
VERTEX
  5
9D
100
AcDbEntity
  8
1
  6
CONTINUOUS
 62
   250
 48
0.120755
100
AcDbVertex
100
AcDb2dVertex
 10
5.822957
 20
5.619497
 30
0.0
 40
0.0
 41
0.0
  0
SEQEND
  5
9E
100
AcDbEntity
  8
0
  0
ARC
  5
9F
100
AcDbEntity
  8
1
  6
CONTINUOUS
 62
   250
 48
0.120755
100
AcDbCircle
 10
-5.522957
 20
5.619497
 30
0.0
 40
0.3
210
0.0
220
0.0
230
-1.0
100
AcDbArc
 50
180.0
 51
270.0
  0
POLYLINE
  5
A0
100
AcDbEntity
  8
1
  6
CONTINUOUS
 62
   250
 48
0.120755
100
AcDb2dPolyline
 66
     1
 10
0.0
 20
0.0
 30
0.0
 70
   128
  0
VERTEX
  5
A1
100
AcDbEntity
  8
1
  6
CONTINUOUS
 62
   250
 48
0.120755
100
AcDbVertex
100
AcDb2dVertex
 10
5.522957
 20
5.319497
 30
0.0
 40
0.0
 41
0.0
  0
VERTEX
  5
A2
100
AcDbEntity
  8
1
  6
CONTINUOUS
 62
   250
 48
0.120755
100
AcDbVertex
100
AcDb2dVertex
 10
4.822957
 20
5.319497
 30
0.0
 40
0.0
 41
0.0
  0
SEQEND
  5
A3
100
AcDbEntity
  8
0
  0
POLYLINE
  5
A4
100
AcDbEntity
  8
1
  6
CONTINUOUS
 62
   250
 48
0.120755
100
AcDb2dPolyline
 66
     1
 10
0.0
 20
0.0
 30
0.0
 70
   128
  0
VERTEX
  5
A5
100
AcDbEntity
  8
1
  6
CONTINUOUS
 62
   250
 48
0.120755
100
AcDbVertex
100
AcDb2dVertex
 10
5.822957
 20
3.519497
 30
0.0
 40
0.0
 41
0.0
  0
VERTEX
  5
A6
100
AcDbEntity
  8
1
  6
CONTINUOUS
 62
   250
 48
0.120755
100
AcDbVertex
100
AcDb2dVertex
 10
5.822957
 20
3.669497
 30
0.0
 40
0.0
 41
0.0
  0
SEQEND
  5
A7
100
AcDbEntity
  8
0
  0
ARC
  5
A8
100
AcDbEntity
  8
1
  6
CONTINUOUS
 62
   250
 48
0.120755
100
AcDbCircle
 10
-5.522957
 20
3.669497
 30
0.0
 40
0.3
210
0.0
220
0.0
230
-1.0
100
AcDbArc
 50
90.0
 51
180.0
  0
POLYLINE
  5
A9
100
AcDbEntity
  8
1
  6
CONTINUOUS
 62
   250
 48
0.120755
100
AcDb2dPolyline
 66
     1
 10
0.0
 20
0.0
 30
0.0
 70
   128
  0
VERTEX
  5
AA
100
AcDbEntity
  8
1
  6
CONTINUOUS
 62
   250
 48
0.120755
100
AcDbVertex
100
AcDb2dVertex
 10
5.522957
 20
3.969497
 30
0.0
 40
0.0
 41
0.0
  0
VERTEX
  5
AB
100
AcDbEntity
  8
1
  6
CONTINUOUS
 62
   250
 48
0.120755
100
AcDbVertex
100
AcDb2dVertex
 10
4.822957
 20
3.969497
 30
0.0
 40
0.0
 41
0.0
  0
SEQEND
  5
AC
100
AcDbEntity
  8
0
  0
POLYLINE
  5
AD
100
AcDbEntity
  8
1
  6
CONTINUOUS
 62
   250
 48
0.120755
100
AcDb2dPolyline
 66
     1
 10
0.0
 20
0.0
 30
0.0
 70
   128
  0
VERTEX
  5
AE
100
AcDbEntity
  8
1
  6
CONTINUOUS
 62
   250
 48
0.120755
100
AcDbVertex
100
AcDb2dVertex
 10
5.822957
 20
5.619497
 30
0.0
 40
0.0
 41
0.0
  0
VERTEX
  5
AF
100
AcDbEntity
  8
1
  6
CONTINUOUS
 62
   250
 48
0.120755
100
AcDbVertex
100
AcDb2dVertex
 10
5.822957
 20
3.669497
 30
0.0
 40
0.0
 41
0.0
  0
SEQEND
  5
B0
100
AcDbEntity
  8
0
  0
POLYLINE
  5
B1
100
AcDbEntity
  8
1
  6
CONTINUOUS
 62
   250
 48
0.120755
100
AcDb2dPolyline
 66
     1
 10
0.0
 20
0.0
 30
0.0
 70
   128
  0
VERTEX
  5
B2
100
AcDbEntity
  8
1
  6
CONTINUOUS
 62
   250
 48
0.120755
100
AcDbVertex
100
AcDb2dVertex
 10
5.522957
 20
5.319497
 30
0.0
 40
0.0
 41
0.0
  0
VERTEX
  5
B3
100
AcDbEntity
  8
1
  6
CONTINUOUS
 62
   250
 48
0.120755
100
AcDbVertex
100
AcDb2dVertex
 10
5.522957
 20
3.969497
 30
0.0
 40
0.0
 41
0.0
  0
SEQEND
  5
B4
100
AcDbEntity
  8
0
  0
POLYLINE
  5
B5
100
AcDbEntity
  8
1
  6
CONTINUOUS
 62
   250
 48
0.1
100
AcDb2dPolyline
 66
     1
 10
0.0
 20
0.0
 30
0.0
 70
   128
  0
VERTEX
  5
B6
100
AcDbEntity
  8
1
  6
CONTINUOUS
 62
   250
 48
0.1
100
AcDbVertex
100
AcDb2dVertex
 10
5.922957
 20
3.519497
 30
0.0
 40
0.0
 41
0.0
  0
VERTEX
  5
B7
100
AcDbEntity
  8
1
  6
CONTINUOUS
 62
   250
 48
0.1
100
AcDbVertex
100
AcDb2dVertex
 10
6.27408
 20
3.519497
 30
0.0
 40
0.0
 41
0.0
  0
SEQEND
  5
B8
100
AcDbEntity
  8
0
  0
POLYLINE
  5
B9
100
AcDbEntity
  8
1
  6
CONTINUOUS
 62
   250
 48
0.1
100
AcDb2dPolyline
 66
     1
 10
0.0
 20
0.0
 30
0.0
 70
   128
  0
VERTEX
  5
BA
100
AcDbEntity
  8
1
  6
CONTINUOUS
 62
   250
 48
0.1
100
AcDbVertex
100
AcDb2dVertex
 10
5.922957
 20
5.769497
 30
0.0
 40
0.0
 41
0.0
  0
VERTEX
  5
BB
100
AcDbEntity
  8
1
  6
CONTINUOUS
 62
   250
 48
0.1
100
AcDbVertex
100
AcDb2dVertex
 10
6.27408
 20
5.769497
 30
0.0
 40
0.0
 41
0.0
  0
SEQEND
  5
BC
100
AcDbEntity
  8
0
  0
POLYLINE
  5
BD
100
AcDbEntity
  8
1
  6
CONTINUOUS
 62
   250
 48
0.1
100
AcDb2dPolyline
 66
     1
 10
0.0
 20
0.0
 30
0.0
 70
   128
  0
VERTEX
  5
BE
100
AcDbEntity
  8
1
  6
CONTINUOUS
 62
   250
 48
0.1
100
AcDbVertex
100
AcDb2dVertex
 10
6.22408
 20
4.40402
 30
0.0
 40
0.0
 41
0.0
  0
VERTEX
  5
BF
100
AcDbEntity
  8
1
  6
CONTINUOUS
 62
   250
 48
0.1
100
AcDbVertex
100
AcDb2dVertex
 10
6.22408
 20
3.519497
 30
0.0
 40
0.0
 41
0.0
  0
SEQEND
  5
C0
100
AcDbEntity
  8
0
  0
POLYLINE
  5
C1
100
AcDbEntity
  8
1
  6
CONTINUOUS
 62
   250
 48
0.1
100
AcDb2dPolyline
 66
     1
 10
0.0
 20
0.0
 30
0.0
 70
   128
  0
VERTEX
  5
C2
100
AcDbEntity
  8
1
  6
CONTINUOUS
 62
   250
 48
0.1
100
AcDbVertex
100
AcDb2dVertex
 10
6.24408
 20
3.619497
 30
0.0
 40
0.0
 41
0.0
  0
VERTEX
  5
C3
100
AcDbEntity
  8
1
  6
CONTINUOUS
 62
   250
 48
0.1
100
AcDbVertex
100
AcDb2dVertex
 10
6.22408
 20
3.519497
 30
0.0
 40
0.0
 41
0.0
  0
VERTEX
  5
C4
100
AcDbEntity
  8
1
  6
CONTINUOUS
 62
   250
 48
0.1
100
AcDbVertex
100
AcDb2dVertex
 10
6.20408
 20
3.619497
 30
0.0
 40
0.0
 41
0.0
  0
SEQEND
  5
C5
100
AcDbEntity
  8
0
  0
POLYLINE
  5
C6
100
AcDbEntity
  8
1
  6
CONTINUOUS
 62
   250
 48
0.1
100
AcDb2dPolyline
 66
     1
 10
0.0
 20
0.0
 30
0.0
 70
   128
  0
VERTEX
  5
C7
100
AcDbEntity
  8
1
  6
CONTINUOUS
 62
   250
 48
0.1
100
AcDbVertex
100
AcDb2dVertex
 10
6.22408
 20
4.884973
 30
0.0
 40
0.0
 41
0.0
  0
VERTEX
  5
C8
100
AcDbEntity
  8
1
  6
CONTINUOUS
 62
   250
 48
0.1
100
AcDbVertex
100
AcDb2dVertex
 10
6.22408
 20
5.769497
 30
0.0
 40
0.0
 41
0.0
  0
SEQEND
  5
C9
100
AcDbEntity
  8
0
  0
POLYLINE
  5
CA
100
AcDbEntity
  8
1
  6
CONTINUOUS
 62
   250
 48
0.1
100
AcDb2dPolyline
 66
     1
 10
0.0
 20
0.0
 30
0.0
 70
   128
  0
VERTEX
  5
CB
100
AcDbEntity
  8
1
  6
CONTINUOUS
 62
   250
 48
0.1
100
AcDbVertex
100
AcDb2dVertex
 10
6.20408
 20
5.669497
 30
0.0
 40
0.0
 41
0.0
  0
VERTEX
  5
CC
100
AcDbEntity
  8
1
  6
CONTINUOUS
 62
   250
 48
0.1
100
AcDbVertex
100
AcDb2dVertex
 10
6.22408
 20
5.769497
 30
0.0
 40
0.0
 41
0.0
  0
VERTEX
  5
CD
100
AcDbEntity
  8
1
  6
CONTINUOUS
 62
   250
 48
0.1
100
AcDbVertex
100
AcDb2dVertex
 10
6.24408
 20
5.669497
 30
0.0
 40
0.0
 41
0.0
  0
SEQEND
  5
CE
100
AcDbEntity
  8
0
  0
TEXT
  5
CF
100
AcDbEntity
  8
1
 62
   250
 48
0.0
100
AcDbText
 10
6.27408
 20
4.454021
 30
0.0
 40
0.1
  1
2.250
 50
90.0
 72
     5
 11
6.27408
 21
4.834973
 31
0.0
210
0.0
220
0.0
230
1.0
100
AcDbText
  0
POLYLINE
  5
D0
100
AcDbEntity
  8
1
  6
CONTINUOUS
 62
   250
 48
0.1
100
AcDb2dPolyline
 66
     1
 10
0.0
 20
0.0
 30
0.0
 70
   128
  0
VERTEX
  5
D1
100
AcDbEntity
  8
1
  6
CONTINUOUS
 62
   250
 48
0.1
100
AcDbVertex
100
AcDb2dVertex
 10
5.922957
 20
3.669497
 30
0.0
 40
0.0
 41
0.0
  0
VERTEX
  5
D2
100
AcDbEntity
  8
1
  6
CONTINUOUS
 62
   250
 48
0.1
100
AcDbVertex
100
AcDb2dVertex
 10
6.030776
 20
3.669497
 30
0.0
 40
0.0
 41
0.0
  0
SEQEND
  5
D3
100
AcDbEntity
  8
0
  0
POLYLINE
  5
D4
100
AcDbEntity
  8
1
  6
CONTINUOUS
 62
   250
 48
0.1
100
AcDb2dPolyline
 66
     1
 10
0.0
 20
0.0
 30
0.0
 70
   128
  0
VERTEX
  5
D5
100
AcDbEntity
  8
1
  6
CONTINUOUS
 62
   250
 48
0.1
100
AcDbVertex
100
AcDb2dVertex
 10
5.922957
 20
5.619497
 30
0.0
 40
0.0
 41
0.0
  0
VERTEX
  5
D6
100
AcDbEntity
  8
1
  6
CONTINUOUS
 62
   250
 48
0.1
100
AcDbVertex
100
AcDb2dVertex
 10
6.030776
 20
5.619497
 30
0.0
 40
0.0
 41
0.0
  0
SEQEND
  5
D7
100
AcDbEntity
  8
0
  0
POLYLINE
  5
D8
100
AcDbEntity
  8
1
  6
CONTINUOUS
 62
   250
 48
0.1
100
AcDb2dPolyline
 66
     1
 10
0.0
 20
0.0
 30
0.0
 70
   128
  0
VERTEX
  5
D9
100
AcDbEntity
  8
1
  6
CONTINUOUS
 62
   250
 48
0.1
100
AcDbVertex
100
AcDb2dVertex
 10
5.980775
 20
4.421163
 30
0.0
 40
0.0
 41
0.0
  0
VERTEX
  5
DA
100
AcDbEntity
  8
1
  6
CONTINUOUS
 62
   250
 48
0.1
100
AcDbVertex
100
AcDb2dVertex
 10
5.980775
 20
3.669497
 30
0.0
 40
0.0
 41
0.0
  0
SEQEND
  5
DB
100
AcDbEntity
  8
0
  0
POLYLINE
  5
DC
100
AcDbEntity
  8
1
  6
CONTINUOUS
 62
   250
 48
0.1
100
AcDb2dPolyline
 66
     1
 10
0.0
 20
0.0
 30
0.0
 70
   128
  0
VERTEX
  5
DD
100
AcDbEntity
  8
1
  6
CONTINUOUS
 62
   250
 48
0.1
100
AcDbVertex
100
AcDb2dVertex
 10
6.000775
 20
3.769497
 30
0.0
 40
0.0
 41
0.0
  0
VERTEX
  5
DE
100
AcDbEntity
  8
1
  6
CONTINUOUS
 62
   250
 48
0.1
100
AcDbVertex
100
AcDb2dVertex
 10
5.980775
 20
3.669497
 30
0.0
 40
0.0
 41
0.0
  0
VERTEX
  5
DF
100
AcDbEntity
  8
1
  6
CONTINUOUS
 62
   250
 48
0.1
100
AcDbVertex
100
AcDb2dVertex
 10
5.960776
 20
3.769497
 30
0.0
 40
0.0
 41
0.0
  0
SEQEND
  5
E0
100
AcDbEntity
  8
0
  0
POLYLINE
  5
E1
100
AcDbEntity
  8
1
  6
CONTINUOUS
 62
   250
 48
0.1
100
AcDb2dPolyline
 66
     1
 10
0.0
 20
0.0
 30
0.0
 70
   128
  0
VERTEX
  5
E2
100
AcDbEntity
  8
1
  6
CONTINUOUS
 62
   250
 48
0.1
100
AcDbVertex
100
AcDb2dVertex
 10
5.980775
 20
4.86783
 30
0.0
 40
0.0
 41
0.0
  0
VERTEX
  5
E3
100
AcDbEntity
  8
1
  6
CONTINUOUS
 62
   250
 48
0.1
100
AcDbVertex
100
AcDb2dVertex
 10
5.980775
 20
5.619497
 30
0.0
 40
0.0
 41
0.0
  0
SEQEND
  5
E4
100
AcDbEntity
  8
0
  0
POLYLINE
  5
E5
100
AcDbEntity
  8
1
  6
CONTINUOUS
 62
   250
 48
0.1
100
AcDb2dPolyline
 66
     1
 10
0.0
 20
0.0
 30
0.0
 70
   128
  0
VERTEX
  5
E6
100
AcDbEntity
  8
1
  6
CONTINUOUS
 62
   250
 48
0.1
100
AcDbVertex
100
AcDb2dVertex
 10
5.960776
 20
5.519497
 30
0.0
 40
0.0
 41
0.0
  0
VERTEX
  5
E7
100
AcDbEntity
  8
1
  6
CONTINUOUS
 62
   250
 48
0.1
100
AcDbVertex
100
AcDb2dVertex
 10
5.980775
 20
5.619497
 30
0.0
 40
0.0
 41
0.0
  0
VERTEX
  5
E8
100
AcDbEntity
  8
1
  6
CONTINUOUS
 62
   250
 48
0.1
100
AcDbVertex
100
AcDb2dVertex
 10
6.000775
 20
5.519497
 30
0.0
 40
0.0
 41
0.0
  0
SEQEND
  5
E9
100
AcDbEntity
  8
0
  0
TEXT
  5
EA
100
AcDbEntity
  8
1
 62
   250
 48
0.0
100
AcDbText
 10
6.030776
 20
4.471163
 30
0.0
 40
0.1
  1
1.950
 50
90.0
 72
     5
 11
6.030776
 21
4.81783
 31
0.0
210
0.0
220
0.0
230
1.0
100
AcDbText
  0
POLYLINE
  5
EB
100
AcDbEntity
  8
1
  6
CONTINUOUS
 62
   250
 48
0.1
100
AcDb2dPolyline
 66
     1
 10
0.0
 20
0.0
 30
0.0
 70
   128
  0
VERTEX
  5
EC
100
AcDbEntity
  8
1
  6
CONTINUOUS
 62
   250
 48
0.1
100
AcDbVertex
100
AcDb2dVertex
 10
4.722956
 20
3.969497
 30
0.0
 40
0.0
 41
0.0
  0
VERTEX
  5
ED
100
AcDbEntity
  8
1
  6
CONTINUOUS
 62
   250
 48
0.1
100
AcDbVertex
100
AcDb2dVertex
 10
4.569107
 20
3.969497
 30
0.0
 40
0.0
 41
0.0
  0
SEQEND
  5
EE
100
AcDbEntity
  8
0
  0
POLYLINE
  5
EF
100
AcDbEntity
  8
1
  6
CONTINUOUS
 62
   250
 48
0.1
100
AcDb2dPolyline
 66
     1
 10
0.0
 20
0.0
 30
0.0
 70
   128
  0
VERTEX
  5
F0
100
AcDbEntity
  8
1
  6
CONTINUOUS
 62
   250
 48
0.1
100
AcDbVertex
100
AcDb2dVertex
 10
4.722956
 20
5.319497
 30
0.0
 40
0.0
 41
0.0
  0
VERTEX
  5
F1
100
AcDbEntity
  8
1
  6
CONTINUOUS
 62
   250
 48
0.1
100
AcDbVertex
100
AcDb2dVertex
 10
4.569107
 20
5.319497
 30
0.0
 40
0.0
 41
0.0
  0
SEQEND
  5
F2
100
AcDbEntity
  8
0
  0
POLYLINE
  5
F3
100
AcDbEntity
  8
1
  6
CONTINUOUS
 62
   250
 48
0.1
100
AcDb2dPolyline
 66
     1
 10
0.0
 20
0.0
 30
0.0
 70
   128
  0
VERTEX
  5
F4
100
AcDbEntity
  8
1
  6
CONTINUOUS
 62
   250
 48
0.1
100
AcDbVertex
100
AcDb2dVertex
 10
4.619107
 20
4.421163
 30
0.0
 40
0.0
 41
0.0
  0
VERTEX
  5
F5
100
AcDbEntity
  8
1
  6
CONTINUOUS
 62
   250
 48
0.1
100
AcDbVertex
100
AcDb2dVertex
 10
4.619107
 20
3.969497
 30
0.0
 40
0.0
 41
0.0
  0
SEQEND
  5
F6
100
AcDbEntity
  8
0
  0
POLYLINE
  5
F7
100
AcDbEntity
  8
1
  6
CONTINUOUS
 62
   250
 48
0.1
100
AcDb2dPolyline
 66
     1
 10
0.0
 20
0.0
 30
0.0
 70
   128
  0
VERTEX
  5
F8
100
AcDbEntity
  8
1
  6
CONTINUOUS
 62
   250
 48
0.1
100
AcDbVertex
100
AcDb2dVertex
 10
4.639107
 20
4.069497
 30
0.0
 40
0.0
 41
0.0
  0
VERTEX
  5
F9
100
AcDbEntity
  8
1
  6
CONTINUOUS
 62
   250
 48
0.1
100
AcDbVertex
100
AcDb2dVertex
 10
4.619107
 20
3.969497
 30
0.0
 40
0.0
 41
0.0
  0
VERTEX
  5
FA
100
AcDbEntity
  8
1
  6
CONTINUOUS
 62
   250
 48
0.1
100
AcDbVertex
100
AcDb2dVertex
 10
4.599107
 20
4.069497
 30
0.0
 40
0.0
 41
0.0
  0
SEQEND
  5
FB
100
AcDbEntity
  8
0
  0
POLYLINE
  5
FC
100
AcDbEntity
  8
1
  6
CONTINUOUS
 62
   250
 48
0.1
100
AcDb2dPolyline
 66
     1
 10
0.0
 20
0.0
 30
0.0
 70
   128
  0
VERTEX
  5
FD
100
AcDbEntity
  8
1
  6
CONTINUOUS
 62
   250
 48
0.1
100
AcDbVertex
100
AcDb2dVertex
 10
4.619107
 20
4.86783
 30
0.0
 40
0.0
 41
0.0
  0
VERTEX
  5
FE
100
AcDbEntity
  8
1
  6
CONTINUOUS
 62
   250
 48
0.1
100
AcDbVertex
100
AcDb2dVertex
 10
4.619107
 20
5.319497
 30
0.0
 40
0.0
 41
0.0
  0
SEQEND
  5
FF
100
AcDbEntity
  8
0
  0
POLYLINE
  5
100
100
AcDbEntity
  8
1
  6
CONTINUOUS
 62
   250
 48
0.1
100
AcDb2dPolyline
 66
     1
 10
0.0
 20
0.0
 30
0.0
 70
   128
  0
VERTEX
  5
101
100
AcDbEntity
  8
1
  6
CONTINUOUS
 62
   250
 48
0.1
100
AcDbVertex
100
AcDb2dVertex
 10
4.599107
 20
5.219497
 30
0.0
 40
0.0
 41
0.0
  0
VERTEX
  5
102
100
AcDbEntity
  8
1
  6
CONTINUOUS
 62
   250
 48
0.1
100
AcDbVertex
100
AcDb2dVertex
 10
4.619107
 20
5.319497
 30
0.0
 40
0.0
 41
0.0
  0
VERTEX
  5
103
100
AcDbEntity
  8
1
  6
CONTINUOUS
 62
   250
 48
0.1
100
AcDbVertex
100
AcDb2dVertex
 10
4.639107
 20
5.219497
 30
0.0
 40
0.0
 41
0.0
  0
SEQEND
  5
104
100
AcDbEntity
  8
0
  0
TEXT
  5
105
100
AcDbEntity
  8
1
 62
   250
 48
0.0
100
AcDbText
 10
4.669107
 20
4.471163
 30
0.0
 40
0.1
  1
1.350
 50
90.0
 72
     5
 11
4.669107
 21
4.81783
 31
0.0
210
0.0
220
0.0
230
1.0
100
AcDbText
  0
POLYLINE
  5
106
100
AcDbEntity
  8
1
  6
CONTINUOUS
 62
   250
 48
0.1
100
AcDb2dPolyline
 66
     1
 10
0.0
 20
0.0
 30
0.0
 70
   128
  0
VERTEX
  5
107
100
AcDbEntity
  8
1
  6
CONTINUOUS
 62
   250
 48
0.1
100
AcDbVertex
100
AcDb2dVertex
 10
4.722956
 20
3.844497
 30
0.0
 40
0.0
 41
0.0
  0
VERTEX
  5
108
100
AcDbEntity
  8
1
  6
CONTINUOUS
 62
   250
 48
0.1
100
AcDbVertex
100
AcDb2dVertex
 10
4.296211
 20
3.844497
 30
0.0
 40
0.0
 41
0.0
  0
SEQEND
  5
109
100
AcDbEntity
  8
0
  0
POLYLINE
  5
10A
100
AcDbEntity
  8
1
  6
CONTINUOUS
 62
   250
 48
0.1
100
AcDb2dPolyline
 66
     1
 10
0.0
 20
0.0
 30
0.0
 70
   128
  0
VERTEX
  5
10B
100
AcDbEntity
  8
1
  6
CONTINUOUS
 62
   250
 48
0.1
100
AcDbVertex
100
AcDb2dVertex
 10
4.722956
 20
5.444497
 30
0.0
 40
0.0
 41
0.0
  0
VERTEX
  5
10C
100
AcDbEntity
  8
1
  6
CONTINUOUS
 62
   250
 48
0.1
100
AcDbVertex
100
AcDb2dVertex
 10
4.296211
 20
5.444497
 30
0.0
 40
0.0
 41
0.0
  0
SEQEND
  5
10D
100
AcDbEntity
  8
0
  0
POLYLINE
  5
10E
100
AcDbEntity
  8
1
  6
CONTINUOUS
 62
   250
 48
0.1
100
AcDb2dPolyline
 66
     1
 10
0.0
 20
0.0
 30
0.0
 70
   128
  0
VERTEX
  5
10F
100
AcDbEntity
  8
1
  6
CONTINUOUS
 62
   250
 48
0.1
100
AcDbVertex
100
AcDb2dVertex
 10
4.346211
 20
4.421163
 30
0.0
 40
0.0
 41
0.0
  0
VERTEX
  5
110
100
AcDbEntity
  8
1
  6
CONTINUOUS
 62
   250
 48
0.1
100
AcDbVertex
100
AcDb2dVertex
 10
4.346211
 20
3.844497
 30
0.0
 40
0.0
 41
0.0
  0
SEQEND
  5
111
100
AcDbEntity
  8
0
  0
POLYLINE
  5
112
100
AcDbEntity
  8
1
  6
CONTINUOUS
 62
   250
 48
0.1
100
AcDb2dPolyline
 66
     1
 10
0.0
 20
0.0
 30
0.0
 70
   128
  0
VERTEX
  5
113
100
AcDbEntity
  8
1
  6
CONTINUOUS
 62
   250
 48
0.1
100
AcDbVertex
100
AcDb2dVertex
 10
4.366211
 20
3.944497
 30
0.0
 40
0.0
 41
0.0
  0
VERTEX
  5
114
100
AcDbEntity
  8
1
  6
CONTINUOUS
 62
   250
 48
0.1
100
AcDbVertex
100
AcDb2dVertex
 10
4.346211
 20
3.844497
 30
0.0
 40
0.0
 41
0.0
  0
VERTEX
  5
115
100
AcDbEntity
  8
1
  6
CONTINUOUS
 62
   250
 48
0.1
100
AcDbVertex
100
AcDb2dVertex
 10
4.326211
 20
3.944497
 30
0.0
 40
0.0
 41
0.0
  0
SEQEND
  5
116
100
AcDbEntity
  8
0
  0
POLYLINE
  5
117
100
AcDbEntity
  8
1
  6
CONTINUOUS
 62
   250
 48
0.1
100
AcDb2dPolyline
 66
     1
 10
0.0
 20
0.0
 30
0.0
 70
   128
  0
VERTEX
  5
118
100
AcDbEntity
  8
1
  6
CONTINUOUS
 62
   250
 48
0.1
100
AcDbVertex
100
AcDb2dVertex
 10
4.346211
 20
4.86783
 30
0.0
 40
0.0
 41
0.0
  0
VERTEX
  5
119
100
AcDbEntity
  8
1
  6
CONTINUOUS
 62
   250
 48
0.1
100
AcDbVertex
100
AcDb2dVertex
 10
4.346211
 20
5.444497
 30
0.0
 40
0.0
 41
0.0
  0
SEQEND
  5
11A
100
AcDbEntity
  8
0
  0
POLYLINE
  5
11B
100
AcDbEntity
  8
1
  6
CONTINUOUS
 62
   250
 48
0.1
100
AcDb2dPolyline
 66
     1
 10
0.0
 20
0.0
 30
0.0
 70
   128
  0
VERTEX
  5
11C
100
AcDbEntity
  8
1
  6
CONTINUOUS
 62
   250
 48
0.1
100
AcDbVertex
100
AcDb2dVertex
 10
4.326211
 20
5.344497
 30
0.0
 40
0.0
 41
0.0
  0
VERTEX
  5
11D
100
AcDbEntity
  8
1
  6
CONTINUOUS
 62
   250
 48
0.1
100
AcDbVertex
100
AcDb2dVertex
 10
4.346211
 20
5.444497
 30
0.0
 40
0.0
 41
0.0
  0
VERTEX
  5
11E
100
AcDbEntity
  8
1
  6
CONTINUOUS
 62
   250
 48
0.1
100
AcDbVertex
100
AcDb2dVertex
 10
4.366211
 20
5.344497
 30
0.0
 40
0.0
 41
0.0
  0
SEQEND
  5
11F
100
AcDbEntity
  8
0
  0
TEXT
  5
120
100
AcDbEntity
  8
1
 62
   250
 48
0.0
100
AcDbText
 10
4.396211
 20
4.471163
 30
0.0
 40
0.1
  1
1.600
 50
90.0
 72
     5
 11
4.396211
 21
4.81783
 31
0.0
210
0.0
220
0.0
230
1.0
100
AcDbText
  0
POLYLINE
  5
121
100
AcDbEntity
  8
1
  6
CONTINUOUS
 62
   250
 48
0.1
100
AcDb2dPolyline
 66
     1
 10
0.0
 20
0.0
 30
0.0
 70
   128
  0
VERTEX
  5
122
100
AcDbEntity
  8
1
  6
CONTINUOUS
 62
   250
 48
0.1
100
AcDbVertex
100
AcDb2dVertex
 10
4.822957
 20
3.644497
 30
0.0
 40
0.0
 41
0.0
  0
VERTEX
  5
123
100
AcDbEntity
  8
1
  6
CONTINUOUS
 62
   250
 48
0.1
100
AcDbVertex
100
AcDb2dVertex
 10
3.977005
 20
3.644497
 30
0.0
 40
0.0
 41
0.0
  0
SEQEND
  5
124
100
AcDbEntity
  8
0
  0
POLYLINE
  5
125
100
AcDbEntity
  8
1
  6
CONTINUOUS
 62
   250
 48
0.1
100
AcDb2dPolyline
 66
     1
 10
0.0
 20
0.0
 30
0.0
 70
   128
  0
VERTEX
  5
126
100
AcDbEntity
  8
1
  6
CONTINUOUS
 62
   250
 48
0.1
100
AcDbVertex
100
AcDb2dVertex
 10
4.822957
 20
5.644497
 30
0.0
 40
0.0
 41
0.0
  0
VERTEX
  5
127
100
AcDbEntity
  8
1
  6
CONTINUOUS
 62
   250
 48
0.1
100
AcDbVertex
100
AcDb2dVertex
 10
3.977005
 20
5.644497
 30
0.0
 40
0.0
 41
0.0
  0
SEQEND
  5
128
100
AcDbEntity
  8
0
  0
POLYLINE
  5
129
100
AcDbEntity
  8
1
  6
CONTINUOUS
 62
   250
 48
0.1
100
AcDb2dPolyline
 66
     1
 10
0.0
 20
0.0
 30
0.0
 70
   128
  0
VERTEX
  5
12A
100
AcDbEntity
  8
1
  6
CONTINUOUS
 62
   250
 48
0.1
100
AcDbVertex
100
AcDb2dVertex
 10
4.027006
 20
4.405925
 30
0.0
 40
0.0
 41
0.0
  0
VERTEX
  5
12B
100
AcDbEntity
  8
1
  6
CONTINUOUS
 62
   250
 48
0.1
100
AcDbVertex
100
AcDb2dVertex
 10
4.027006
 20
3.644497
 30
0.0
 40
0.0
 41
0.0
  0
SEQEND
  5
12C
100
AcDbEntity
  8
0
  0
POLYLINE
  5
12D
100
AcDbEntity
  8
1
  6
CONTINUOUS
 62
   250
 48
0.1
100
AcDb2dPolyline
 66
     1
 10
0.0
 20
0.0
 30
0.0
 70
   128
  0
VERTEX
  5
12E
100
AcDbEntity
  8
1
  6
CONTINUOUS
 62
   250
 48
0.1
100
AcDbVertex
100
AcDb2dVertex
 10
4.047006
 20
3.744497
 30
0.0
 40
0.0
 41
0.0
  0
VERTEX
  5
12F
100
AcDbEntity
  8
1
  6
CONTINUOUS
 62
   250
 48
0.1
100
AcDbVertex
100
AcDb2dVertex
 10
4.027006
 20
3.644497
 30
0.0
 40
0.0
 41
0.0
  0
VERTEX
  5
130
100
AcDbEntity
  8
1
  6
CONTINUOUS
 62
   250
 48
0.1
100
AcDbVertex
100
AcDb2dVertex
 10
4.007006
 20
3.744497
 30
0.0
 40
0.0
 41
0.0
  0
SEQEND
  5
131
100
AcDbEntity
  8
0
  0
POLYLINE
  5
132
100
AcDbEntity
  8
1
  6
CONTINUOUS
 62
   250
 48
0.1
100
AcDb2dPolyline
 66
     1
 10
0.0
 20
0.0
 30
0.0
 70
   128
  0
VERTEX
  5
133
100
AcDbEntity
  8
1
  6
CONTINUOUS
 62
   250
 48
0.1
100
AcDbVertex
100
AcDb2dVertex
 10
4.027006
 20
4.883068
 30
0.0
 40
0.0
 41
0.0
  0
VERTEX
  5
134
100
AcDbEntity
  8
1
  6
CONTINUOUS
 62
   250
 48
0.1
100
AcDbVertex
100
AcDb2dVertex
 10
4.027006
 20
5.644497
 30
0.0
 40
0.0
 41
0.0
  0
SEQEND
  5
135
100
AcDbEntity
  8
0
  0
POLYLINE
  5
136
100
AcDbEntity
  8
1
  6
CONTINUOUS
 62
   250
 48
0.1
100
AcDb2dPolyline
 66
     1
 10
0.0
 20
0.0
 30
0.0
 70
   128
  0
VERTEX
  5
137
100
AcDbEntity
  8
1
  6
CONTINUOUS
 62
   250
 48
0.1
100
AcDbVertex
100
AcDb2dVertex
 10
4.007006
 20
5.544497
 30
0.0
 40
0.0
 41
0.0
  0
VERTEX
  5
138
100
AcDbEntity
  8
1
  6
CONTINUOUS
 62
   250
 48
0.1
100
AcDbVertex
100
AcDb2dVertex
 10
4.027006
 20
5.644497
 30
0.0
 40
0.0
 41
0.0
  0
VERTEX
  5
139
100
AcDbEntity
  8
1
  6
CONTINUOUS
 62
   250
 48
0.1
100
AcDbVertex
100
AcDb2dVertex
 10
4.047006
 20
5.544497
 30
0.0
 40
0.0
 41
0.0
  0
SEQEND
  5
13A
100
AcDbEntity
  8
0
  0
TEXT
  5
13B
100
AcDbEntity
  8
1
 62
   250
 48
0.0
100
AcDbText
 10
4.077006
 20
4.455925
 30
0.0
 40
0.1
  1
2.000
 50
90.0
 72
     5
 11
4.077006
 21
4.833068
 31
0.0
210
0.0
220
0.0
230
1.0
100
AcDbText
  0
POLYLINE
  5
13C
100
AcDbEntity
  8
1
  6
CONTINUOUS
 62
   250
 48
0.1
100
AcDb2dPolyline
 66
     1
 10
0.0
 20
0.0
 30
0.0
 70
   128
  0
VERTEX
  5
13D
100
AcDbEntity
  8
1
  6
CONTINUOUS
 62
   250
 48
0.1
100
AcDbVertex
100
AcDb2dVertex
 10
7.635956
 20
5.869497
 30
0.0
 40
0.0
 41
0.0
  0
VERTEX
  5
13E
100
AcDbEntity
  8
1
  6
CONTINUOUS
 62
   250
 48
0.1
100
AcDbVertex
100
AcDb2dVertex
 10
7.635956
 20
6.288023
 30
0.0
 40
0.0
 41
0.0
  0
SEQEND
  5
13F
100
AcDbEntity
  8
0
  0
POLYLINE
  5
140
100
AcDbEntity
  8
1
  6
CONTINUOUS
 62
   250
 48
0.1
100
AcDb2dPolyline
 66
     1
 10
0.0
 20
0.0
 30
0.0
 70
   128
  0
VERTEX
  5
141
100
AcDbEntity
  8
1
  6
CONTINUOUS
 62
   250
 48
0.1
100
AcDbVertex
100
AcDb2dVertex
 10
8.009957
 20
5.869497
 30
0.0
 40
0.0
 41
0.0
  0
VERTEX
  5
142
100
AcDbEntity
  8
1
  6
CONTINUOUS
 62
   250
 48
0.1
100
AcDbVertex
100
AcDb2dVertex
 10
8.009957
 20
6.288023
 30
0.0
 40
0.0
 41
0.0
  0
SEQEND
  5
143
100
AcDbEntity
  8
0
  0
TEXT
  5
144
100
AcDbEntity
  8
1
 62
   250
 48
0.0
100
AcDbText
 10
7.631052
 20
6.188022
 30
0.0
 40
0.1
  1
0.374
 72
     5
 11
8.014862
 21
6.188022
 31
0.0
210
0.0
220
0.0
230
1.0
100
AcDbText
  0
POLYLINE
  5
145
100
AcDbEntity
  8
1
  6
CONTINUOUS
 62
   250
 48
0.1
100
AcDb2dPolyline
 66
     1
 10
0.0
 20
0.0
 30
0.0
 70
   128
  0
VERTEX
  5
146
100
AcDbEntity
  8
1
  6
CONTINUOUS
 62
   250
 48
0.1
100
AcDbVertex
100
AcDb2dVertex
 10
4.822957
 20
5.544497
 30
0.0
 40
0.0
 41
0.0
  0
VERTEX
  5
147
100
AcDbEntity
  8
1
  6
CONTINUOUS
 62
   250
 48
0.1
100
AcDbVertex
100
AcDb2dVertex
 10
4.822957
 20
6.296242
 30
0.0
 40
0.0
 41
0.0
  0
SEQEND
  5
148
100
AcDbEntity
  8
0
  0
POLYLINE
  5
149
100
AcDbEntity
  8
1
  6
CONTINUOUS
 62
   250
 48
0.1
100
AcDb2dPolyline
 66
     1
 10
0.0
 20
0.0
 30
0.0
 70
   128
  0
VERTEX
  5
14A
100
AcDbEntity
  8
1
  6
CONTINUOUS
 62
   250
 48
0.1
100
AcDbVertex
100
AcDb2dVertex
 10
5.822957
 20
5.869497
 30
0.0
 40
0.0
 41
0.0
  0
VERTEX
  5
14B
100
AcDbEntity
  8
1
  6
CONTINUOUS
 62
   250
 48
0.1
100
AcDbVertex
100
AcDb2dVertex
 10
5.822957
 20
6.296242
 30
0.0
 40
0.0
 41
0.0
  0
SEQEND
  5
14C
100
AcDbEntity
  8
0
  0
POLYLINE
  5
14D
100
AcDbEntity
  8
1
  6
CONTINUOUS
 62
   250
 48
0.1
100
AcDb2dPolyline
 66
     1
 10
0.0
 20
0.0
 30
0.0
 70
   128
  0
VERTEX
  5
14E
100
AcDbEntity
  8
1
  6
CONTINUOUS
 62
   250
 48
0.1
100
AcDbVertex
100
AcDb2dVertex
 10
5.099623
 20
6.246242
 30
0.0
 40
0.0
 41
0.0
  0
VERTEX
  5
14F
100
AcDbEntity
  8
1
  6
CONTINUOUS
 62
   250
 48
0.1
100
AcDbVertex
100
AcDb2dVertex
 10
4.822957
 20
6.246242
 30
0.0
 40
0.0
 41
0.0
  0
SEQEND
  5
150
100
AcDbEntity
  8
0
  0
POLYLINE
  5
151
100
AcDbEntity
  8
1
  6
CONTINUOUS
 62
   250
 48
0.1
100
AcDb2dPolyline
 66
     1
 10
0.0
 20
0.0
 30
0.0
 70
   128
  0
VERTEX
  5
152
100
AcDbEntity
  8
1
  6
CONTINUOUS
 62
   250
 48
0.1
100
AcDbVertex
100
AcDb2dVertex
 10
4.922957
 20
6.226242
 30
0.0
 40
0.0
 41
0.0
  0
VERTEX
  5
153
100
AcDbEntity
  8
1
  6
CONTINUOUS
 62
   250
 48
0.1
100
AcDbVertex
100
AcDb2dVertex
 10
4.822957
 20
6.246242
 30
0.0
 40
0.0
 41
0.0
  0
VERTEX
  5
154
100
AcDbEntity
  8
1
  6
CONTINUOUS
 62
   250
 48
0.1
100
AcDbVertex
100
AcDb2dVertex
 10
4.922957
 20
6.266241
 30
0.0
 40
0.0
 41
0.0
  0
SEQEND
  5
155
100
AcDbEntity
  8
0
  0
POLYLINE
  5
156
100
AcDbEntity
  8
1
  6
CONTINUOUS
 62
   250
 48
0.1
100
AcDb2dPolyline
 66
     1
 10
0.0
 20
0.0
 30
0.0
 70
   128
  0
VERTEX
  5
157
100
AcDbEntity
  8
1
  6
CONTINUOUS
 62
   250
 48
0.1
100
AcDbVertex
100
AcDb2dVertex
 10
5.54629
 20
6.246242
 30
0.0
 40
0.0
 41
0.0
  0
VERTEX
  5
158
100
AcDbEntity
  8
1
  6
CONTINUOUS
 62
   250
 48
0.1
100
AcDbVertex
100
AcDb2dVertex
 10
5.822957
 20
6.246242
 30
0.0
 40
0.0
 41
0.0
  0
SEQEND
  5
159
100
AcDbEntity
  8
0
  0
POLYLINE
  5
15A
100
AcDbEntity
  8
1
  6
CONTINUOUS
 62
   250
 48
0.1
100
AcDb2dPolyline
 66
     1
 10
0.0
 20
0.0
 30
0.0
 70
   128
  0
VERTEX
  5
15B
100
AcDbEntity
  8
1
  6
CONTINUOUS
 62
   250
 48
0.1
100
AcDbVertex
100
AcDb2dVertex
 10
5.722956
 20
6.266241
 30
0.0
 40
0.0
 41
0.0
  0
VERTEX
  5
15C
100
AcDbEntity
  8
1
  6
CONTINUOUS
 62
   250
 48
0.1
100
AcDbVertex
100
AcDb2dVertex
 10
5.822957
 20
6.246242
 30
0.0
 40
0.0
 41
0.0
  0
VERTEX
  5
15D
100
AcDbEntity
  8
1
  6
CONTINUOUS
 62
   250
 48
0.1
100
AcDbVertex
100
AcDb2dVertex
 10
5.722956
 20
6.226242
 30
0.0
 40
0.0
 41
0.0
  0
SEQEND
  5
15E
100
AcDbEntity
  8
0
  0
TEXT
  5
15F
100
AcDbEntity
  8
1
 62
   250
 48
0.0
100
AcDbText
 10
5.149623
 20
6.196241
 30
0.0
 40
0.1
  1
1.000
 72
     5
 11
5.49629
 21
6.196241
 31
0.0
210
0.0
220
0.0
230
1.0
100
AcDbText
  0
POLYLINE
  5
160
100
AcDbEntity
  8
1
  6
CONTINUOUS
 62
   250
 48
0.1
100
AcDb2dPolyline
 66
     1
 10
0.0
 20
0.0
 30
0.0
 70
   128
  0
VERTEX
  5
161
100
AcDbEntity
  8
1
  6
CONTINUOUS
 62
   250
 48
0.1
100
AcDbVertex
100
AcDb2dVertex
 10
4.822957
 20
5.544497
 30
0.0
 40
0.0
 41
0.0
  0
VERTEX
  5
162
100
AcDbEntity
  8
1
  6
CONTINUOUS
 62
   250
 48
0.1
100
AcDbVertex
100
AcDb2dVertex
 10
4.822957
 20
6.047946
 30
0.0
 40
0.0
 41
0.0
  0
SEQEND
  5
163
100
AcDbEntity
  8
0
  0
POLYLINE
  5
164
100
AcDbEntity
  8
1
  6
CONTINUOUS
 62
   250
 48
0.1
100
AcDb2dPolyline
 66
     1
 10
0.0
 20
0.0
 30
0.0
 70
   128
  0
VERTEX
  5
165
100
AcDbEntity
  8
1
  6
CONTINUOUS
 62
   250
 48
0.1
100
AcDbVertex
100
AcDb2dVertex
 10
4.922957
 20
5.744497
 30
0.0
 40
0.0
 41
0.0
  0
VERTEX
  5
166
100
AcDbEntity
  8
1
  6
CONTINUOUS
 62
   250
 48
0.1
100
AcDbVertex
100
AcDb2dVertex
 10
4.922957
 20
6.047946
 30
0.0
 40
0.0
 41
0.0
  0
SEQEND
  5
167
100
AcDbEntity
  8
0
  0
TEXT
  5
168
100
AcDbEntity
  8
1
 62
   250
 48
0.0
100
AcDbText
 10
4.699623
 20
5.947946
 30
0.0
 40
0.1
  1
0.100
 72
     5
 11
5.04629
 21
5.947946
 31
0.0
210
0.0
220
0.0
230
1.0
100
AcDbText
  0
POLYLINE
  5
169
100
AcDbEntity
  8
1
  6
CONTINUOUS
 62
   250
 48
0.1
100
AcDb2dPolyline
 66
     1
 10
0.0
 20
0.0
 30
0.0
 70
   128
  0
VERTEX
  5
16A
100
AcDbEntity
  8
1
  6
CONTINUOUS
 62
   250
 48
0.1
100
AcDbVertex
100
AcDb2dVertex
 10
4.822957
 20
3.744496
 30
0.0
 40
0.0
 41
0.0
  0
VERTEX
  5
16B
100
AcDbEntity
  8
1
  6
CONTINUOUS
 62
   250
 48
0.1
100
AcDbVertex
100
AcDb2dVertex
 10
4.822957
 20
3.074949
 30
0.0
 40
0.0
 41
0.0
  0
SEQEND
  5
16C
100
AcDbEntity
  8
0
  0
POLYLINE
  5
16D
100
AcDbEntity
  8
1
  6
CONTINUOUS
 62
   250
 48
0.1
100
AcDb2dPolyline
 66
     1
 10
0.0
 20
0.0
 30
0.0
 70
   128
  0
VERTEX
  5
16E
100
AcDbEntity
  8
1
  6
CONTINUOUS
 62
   250
 48
0.1
100
AcDbVertex
100
AcDb2dVertex
 10
5.572957
 20
3.419497
 30
0.0
 40
0.0
 41
0.0
  0
VERTEX
  5
16F
100
AcDbEntity
  8
1
  6
CONTINUOUS
 62
   250
 48
0.1
100
AcDbVertex
100
AcDb2dVertex
 10
5.572957
 20
3.074949
 30
0.0
 40
0.0
 41
0.0
  0
SEQEND
  5
170
100
AcDbEntity
  8
0
  0
POLYLINE
  5
171
100
AcDbEntity
  8
1
  6
CONTINUOUS
 62
   250
 48
0.1
100
AcDb2dPolyline
 66
     1
 10
0.0
 20
0.0
 30
0.0
 70
   128
  0
VERTEX
  5
172
100
AcDbEntity
  8
1
  6
CONTINUOUS
 62
   250
 48
0.1
100
AcDbVertex
100
AcDb2dVertex
 10
4.960814
 20
3.124949
 30
0.0
 40
0.0
 41
0.0
  0
VERTEX
  5
173
100
AcDbEntity
  8
1
  6
CONTINUOUS
 62
   250
 48
0.1
100
AcDbVertex
100
AcDb2dVertex
 10
4.822957
 20
3.124949
 30
0.0
 40
0.0
 41
0.0
  0
SEQEND
  5
174
100
AcDbEntity
  8
0
  0
POLYLINE
  5
175
100
AcDbEntity
  8
1
  6
CONTINUOUS
 62
   250
 48
0.1
100
AcDb2dPolyline
 66
     1
 10
0.0
 20
0.0
 30
0.0
 70
   128
  0
VERTEX
  5
176
100
AcDbEntity
  8
1
  6
CONTINUOUS
 62
   250
 48
0.1
100
AcDbVertex
100
AcDb2dVertex
 10
4.922957
 20
3.104949
 30
0.0
 40
0.0
 41
0.0
  0
VERTEX
  5
177
100
AcDbEntity
  8
1
  6
CONTINUOUS
 62
   250
 48
0.1
100
AcDbVertex
100
AcDb2dVertex
 10
4.822957
 20
3.124949
 30
0.0
 40
0.0
 41
0.0
  0
VERTEX
  5
178
100
AcDbEntity
  8
1
  6
CONTINUOUS
 62
   250
 48
0.1
100
AcDbVertex
100
AcDb2dVertex
 10
4.922957
 20
3.144949
 30
0.0
 40
0.0
 41
0.0
  0
SEQEND
  5
179
100
AcDbEntity
  8
0
  0
POLYLINE
  5
17A
100
AcDbEntity
  8
1
  6
CONTINUOUS
 62
   250
 48
0.1
100
AcDb2dPolyline
 66
     1
 10
0.0
 20
0.0
 30
0.0
 70
   128
  0
VERTEX
  5
17B
100
AcDbEntity
  8
1
  6
CONTINUOUS
 62
   250
 48
0.1
100
AcDbVertex
100
AcDb2dVertex
 10
5.435099
 20
3.124949
 30
0.0
 40
0.0
 41
0.0
  0
VERTEX
  5
17C
100
AcDbEntity
  8
1
  6
CONTINUOUS
 62
   250
 48
0.1
100
AcDbVertex
100
AcDb2dVertex
 10
5.572957
 20
3.124949
 30
0.0
 40
0.0
 41
0.0
  0
SEQEND
  5
17D
100
AcDbEntity
  8
0
  0
POLYLINE
  5
17E
100
AcDbEntity
  8
1
  6
CONTINUOUS
 62
   250
 48
0.1
100
AcDb2dPolyline
 66
     1
 10
0.0
 20
0.0
 30
0.0
 70
   128
  0
VERTEX
  5
17F
100
AcDbEntity
  8
1
  6
CONTINUOUS
 62
   250
 48
0.1
100
AcDbVertex
100
AcDb2dVertex
 10
5.472956
 20
3.144949
 30
0.0
 40
0.0
 41
0.0
  0
VERTEX
  5
180
100
AcDbEntity
  8
1
  6
CONTINUOUS
 62
   250
 48
0.1
100
AcDbVertex
100
AcDb2dVertex
 10
5.572957
 20
3.124949
 30
0.0
 40
0.0
 41
0.0
  0
VERTEX
  5
181
100
AcDbEntity
  8
1
  6
CONTINUOUS
 62
   250
 48
0.1
100
AcDbVertex
100
AcDb2dVertex
 10
5.472956
 20
3.104949
 30
0.0
 40
0.0
 41
0.0
  0
SEQEND
  5
182
100
AcDbEntity
  8
0
  0
TEXT
  5
183
100
AcDbEntity
  8
1
 62
   250
 48
0.0
100
AcDbText
 10
5.010814
 20
3.074949
 30
0.0
 40
0.1
  1
0.750
 72
     5
 11
5.385099
 21
3.074949
 31
0.0
210
0.0
220
0.0
230
1.0
100
AcDbText
  0
POLYLINE
  5
184
100
AcDbEntity
  8
1
  6
CONTINUOUS
 62
   250
 48
0.1
100
AcDb2dPolyline
 66
     1
 10
0.0
 20
0.0
 30
0.0
 70
   128
  0
VERTEX
  5
185
100
AcDbEntity
  8
1
  6
CONTINUOUS
 62
   250
 48
0.1
100
AcDbVertex
100
AcDb2dVertex
 10
4.822957
 20
3.744496
 30
0.0
 40
0.0
 41
0.0
  0
VERTEX
  5
186
100
AcDbEntity
  8
1
  6
CONTINUOUS
 62
   250
 48
0.1
100
AcDbVertex
100
AcDb2dVertex
 10
4.822957
 20
3.356124
 30
0.0
 40
0.0
 41
0.0
  0
SEQEND
  5
187
100
AcDbEntity
  8
0
  0
POLYLINE
  5
188
100
AcDbEntity
  8
1
  6
CONTINUOUS
 62
   250
 48
0.1
100
AcDb2dPolyline
 66
     1
 10
0.0
 20
0.0
 30
0.0
 70
   128
  0
VERTEX
  5
189
100
AcDbEntity
  8
1
  6
CONTINUOUS
 62
   250
 48
0.1
100
AcDbVertex
100
AcDb2dVertex
 10
4.997957
 20
3.544497
 30
0.0
 40
0.0
 41
0.0
  0
VERTEX
  5
18A
100
AcDbEntity
  8
1
  6
CONTINUOUS
 62
   250
 48
0.1
100
AcDbVertex
100
AcDb2dVertex
 10
4.997957
 20
3.356124
 30
0.0
 40
0.0
 41
0.0
  0
SEQEND
  5
18B
100
AcDbEntity
  8
0
  0
TEXT
  5
18C
100
AcDbEntity
  8
1
 62
   250
 48
0.0
100
AcDbText
 10
4.736647
 20
3.356124
 30
0.0
 40
0.1
  1
0.175
 72
     5
 11
5.084266
 21
3.356124
 31
0.0
210
0.0
220
0.0
230
1.0
100
AcDbText
  0
ENDSEC
  0
SECTION
  2
OBJECTS
  0
DICTIONARY
  5
19
100
AcDbDictionary
  3
ACAD_GROUP
350
1A
  3
ACAD_MLINESTYLE
350
1B
  0
DICTIONARY
  5
1A
102
{ACAD_REACTORS
330
19
102
}
100
AcDbDictionary
  0
DICTIONARY
  5
1B
102
{ACAD_REACTORS
330
19
102
}
100
AcDbDictionary
  3
STANDARD
350
1C
  0
MLINESTYLE
  5
1C
102
{ACAD_REACTORS
330
1B
102
}
100
AcDbMlineStyle
  2
STANDARD
 70
     0
  3

 62
     0
 51
90.0
 52
90.0
 71
     2
 49
0.5
 62
   256
  6
BYLAYER
 49
-0.5
 62
   256
  6
BYLAYER
  0
ENDSEC
  0
EOF
