  0
SECTION
  2
HEADER
  9
$ACADVER
  1
AC1012
  9
$DWGCODEPAGE
  3
dos850
  9
$INSBASE
 10
0.0
 20
0.0
 30
0.0
  9
$EXTMIN
 10
0.673103
 20
0.178816
 30
0.0
  9
$EXTMAX
 10
7.174425
 20
4.817568
 30
0.0
  9
$LIMMIN
 10
0.0
 20
0.0
  9
$LIMMAX
 10
0.0
 20
0.0
  9
$ORTHOMODE
 70
     0
  9
$REGENMODE
 70
     1
  9
$FILLMODE
 70
     1
  9
$QTEXTMODE
 70
     0
  9
$MIRRTEXT
 70
     1
  9
$DRAGMODE
 70
     2
  9
$LTSCALE
 40
1.0
  9
$OSMODE
 70
     0
  9
$ATTMODE
 70
     1
  9
$TEXTSIZE
 40
0.2
  9
$TRACEWID
 40
0.05
  9
$TEXTSTYLE
  7
STANDARD
  9
$CLAYER
  8
0
  9
$CELTYPE
  6
CONTINUOUS
  9
$CECOLOR
 62
   256
  9
$CELTSCALE
 40
1.0
  9
$DELOBJ
 70
     1
  9
$DISPSILH
 70
     0
  9
$DIMSCALE
 40
1.0
  9
$DIMASZ
 40
0.18
  9
$DIMEXO
 40
0.0625
  9
$DIMDLI
 40
0.38
  9
$DIMRND
 40
0.0
  9
$DIMDLE
 40
0.0
  9
$DIMEXE
 40
0.18
  9
$DIMTP
 40
0.0
  9
$DIMTM
 40
0.0
  9
$DIMTXT
 40
0.18
  9
$DIMCEN
 40
0.09
  9
$DIMTSZ
 40
0.0
  9
$DIMTOL
 70
     0
  9
$DIMLIM
 70
     0
  9
$DIMTIH
 70
     1
  9
$DIMTOH
 70
     1
  9
$DIMSE1
 70
     0
  9
$DIMSE2
 70
     0
  9
$DIMTAD
 70
     0
  9
$DIMZIN
 70
     0
  9
$DIMBLK
  1

  9
$DIMASO
 70
     1
  9
$DIMSHO
 70
     1
  9
$DIMPOST
  1

  9
$DIMAPOST
  1

  9
$DIMALT
 70
     0
  9
$DIMALTD
 70
     2
  9
$DIMALTF
 40
25.4
  9
$DIMLFAC
 40
1.0
  9
$DIMTOFL
 70
     0
  9
$DIMTVP
 40
0.0
  9
$DIMTIX
 70
     0
  9
$DIMSOXD
 70
     0
  9
$DIMSAH
 70
     0
  9
$DIMBLK1
  1

  9
$DIMBLK2
  1

  9
$DIMSTYLE
  2
STANDARD
  9
$DIMCLRD
 70
     0
  9
$DIMCLRE
 70
     0
  9
$DIMCLRT
 70
     0
  9
$DIMTFAC
 40
1.0
  9
$DIMGAP
 40
0.09
  9
$DIMJUST
 70
     0
  9
$DIMSD1
 70
     0
  9
$DIMSD2
 70
     0
  9
$DIMTOLJ
 70
     1
  9
$DIMTZIN
 70
     0
  9
$DIMALTZ
 70
     0
  9
$DIMALTTZ
 70
     0
  9
$DIMFIT
 70
     3
  9
$DIMUPT
 70
     0
  9
$DIMUNIT
 70
     2
  9
$DIMDEC
 70
     4
  9
$DIMTDEC
 70
     4
  9
$DIMALTU
 70
     2
  9
$DIMALTTD
 70
     2
  9
$DIMTXSTY
  7
STANDARD
  9
$DIMAUNIT
 70
     0
  9
$LUNITS
 70
     2
  9
$LUPREC
 70
     4
  9
$SKETCHINC
 40
0.1
  9
$FILLETRAD
 40
0.0
  9
$AUNITS
 70
     0
  9
$AUPREC
 70
     0
  9
$MENU
  1
acad
  9
$ELEVATION
 40
0.0
  9
$PELEVATION
 40
0.0
  9
$THICKNESS
 40
0.0
  9
$LIMCHECK
 70
     0
  9
$BLIPMODE
 70
     1
  9
$CHAMFERA
 40
0.0
  9
$CHAMFERB
 40
0.0
  9
$CHAMFERC
 40
0.0
  9
$CHAMFERD
 40
0.0
  9
$SKPOLY
 70
     0
  9
$TDCREATE
 40
0.000000000
  9
$TDUPDATE
 40
0.000000000
  9
$TDINDWG
 40
0.0000000000
  9
$TDUSRTIMER
 40
0.0000000000
  9
$USRTIMER
 70
     1
  9
$ANGBASE
 50
0.0
  9
$ANGDIR
 70
     0
  9
$PDMODE
 70
     0
  9
$PDSIZE
 40
0.0
  9
$PLINEWID
 40
0.0
  9
$COORDS
 70
     0
  9
$SPLFRAME
 70
     0
  9
$SPLINETYPE
 70
     6
  9
$SPLINESEGS
 70
     8
  9
$ATTDIA
 70
     0
  9
$ATTREQ
 70
     1
  9
$HANDLING
 70
     1
  9
$HANDSEED
  5
12F
  9
$SURFTAB1
 70
     6
  9
$SURFTAB2
 70
     6
  9
$SURFTYPE
 70
     6
  9
$SURFU
 70
     6
  9
$SURFV
 70
     6
  9
$UCSNAME
  2

  9
$UCSORG
 10
0.0
 20
0.0
 30
0.0
  9
$UCSXDIR
 10
1.0
 20
0.0
 30
0.0
  9
$UCSYDIR
 10
0.0
 20
1.0
 30
0.0
  9
$PUCSNAME
  2

  9
$PUCSORG
 10
0.0
 20
0.0
 30
0.0
  9
$PUCSXDIR
 10
1.0
 20
0.0
 30
0.0
  9
$PUCSYDIR
 10
0.0
 20
1.0
 30
0.0
  9
$USERI1
 70
     0
  9
$USERI2
 70
     0
  9
$USERI3
 70
     0
  9
$USERI4
 70
     0
  9
$USERI5
 70
     0
  9
$USERR1
 40
0.0
  9
$USERR2
 40
0.0
  9
$USERR3
 40
0.0
  9
$USERR4
 40
0.0
  9
$USERR5
 40
0.0
  9
$WORLDVIEW
 70
     1
  9
$SHADEDGE
 70
     3
  9
$SHADEDIF
 70
    70
  9
$TILEMODE
 70
     1
  9
$MAXACTVP
 70
    16
  9
$PINSBASE
 10
0.0
 20
0.0
 30
0.0
  9
$PLIMCHECK
 70
     0
  9
$PEXTMIN
 10
1.000000E+20
 20
1.000000E+20
 30
1.000000E+20
  9
$PEXTMAX
 10
-1.000000E+20
 20
-1.000000E+20
 30
-1.000000E+20
  9
$PLIMMIN
 10
0.0
 20
0.0
  9
$PLIMMAX
 10
12.0
 20
9.0
  9
$UNITMODE
 70
     0
  9
$VISRETAIN
 70
     0
  9
$PLINEGEN
 70
     0
  9
$PSLTSCALE
 70
     0
  9
$TREEDEPTH
 70
  3020
  9
$PICKSTYLE
 70
     1
  9
$CMLSTYLE
  2
STANDARD
  9
$CMLJUST
 70
     0
  9
$CMLSCALE
 40
1.0
  9
$SAVEIMAGES
 70
     0
  0
ENDSEC
  0
SECTION
  2
CLASSES
  0
CLASS
  1
LWPOLYLINE
  2
AcDbPolyline
  3
"AutoCAD"
 90
        0
280
     0
281
     1
  0
CLASS
  1
IMAGE
  2
AcDbRasterImage
  3
ISM
 90
      127
280
     0
281
     1
  0
CLASS
  1
OLE2FRAME
  2
AcDbOle2Frame
  3
""
 90
        0
280
     0
281
     1
  0
CLASS
  1
HATCH
  2
AcDbHatch
  3
"ACAD_SEDONA"
 90
        0
280
     0
281
     1
  0
CLASS
  1
DICTIONARYVAR
  2
AcDbDictionaryVar
  3
"AutoCAD"
 90
        0
280
     0
281
     0
  0
CLASS
  1
RASTERVARIABLES
  2
AcDbRasterVariables
  3
ISM
 90
        0
280
     0
281
     0
  0
CLASS
  1
IMAGEDEF
  2
AcDbRasterImageDef
  3
ISM
 90
        0
280
     0
281
     0
  0
CLASS
  1
IMAGEDEF_REACTOR
  2
AcDbRasterImageDefReactor
  3
ISM
 90
        1
280
     0
281
     0
  0
CLASS
  1
IDBUFFER
  2
AcDbIdBuffer
  3
"Acad"
 90
        0
280
     0
281
     0
  0
CLASS
  1
SPATIAL_FILTER
  2
AcDbSpatialFilter
  3
"Acad"
 90
        0
280
     0
281
     0
  0
CLASS
  1
XRECORD
  2
AcDbXrecord
  3
"<Built In>"
 90
        0
280
     0
281
     0
  0
CLASS
  1
SORTENTSTABLE
  2
AcDbSortentsTable
  3
"AutoCAD"
 90
        0
280
     0
281
     0
  0
CLASS
  1
LAYER_INDEX
  2
AcDbLayerIndex
  3
"Acad"
 90
        0
280
     0
281
     0
  0
CLASS
  1
SPATIAL_INDEX
  2
AcDbSpatialIndex
  3
"Acad"
 90
        0
280
     0
281
     0
  0
CLASS
  1
OBJECT_PTR
  2
CAseDLPNTableRecord
  3
"ASE-LPNTableRecord"
 90
        1
280
     0
281
     0
  0
ENDSEC
  0
SECTION
  2
TABLES
  0
TABLE
  2
VPORT
  5
7
100
AcDbSymbolTable
 70
     2
  0
VPORT
  5
15
100
AcDbSymbolTableRecord
100
AcDbViewportTableRecord
  2
*ACTIVE
 70
     0
 10
0.0
 20
0.0
 11
1.0
 21
1.0
 12
6.591288
 22
4.579184
 13
0.0
 23
0.0
 14
1.0
 24
1.0
 15
0.0
 25
0.0
 16
0.0
 26
0.0
 36
1.0
 17
0.0
 27
0.0
 37
0.0
 40
9.158369
 41
0.688564
 42
50.0
 43
0.0
 44
0.0
 50
0.0
 51
0.0
 71
     0
 72
   100
 73
     1
 74
     1
 75
     0
 76
     0
 77
     0
 78
     0
  0
VPORT
  5
2C
100
AcDbSymbolTableRecord
100
AcDbViewportTableRecord
  2
DCADVPORT
 70
     0
 10
0.673103
 20
0.178816
 11
7.174425
 21
4.817568
 12
6.21
 22
9.02
 13
0.0
 23
0.0
 14
1.0
 24
1.0
 15
0.0
 25
0.0
 16
0.0
 26
0.0
 36
1.0
 17
0.0
 27
0.0
 37
0.0
 40
18.04
 41
0.688564
 42
50.0
 43
1.0
 44
1.0
 50
0.0
 51
0.0
 71
     0
 72
   100
 73
     1
 74
     1
 75
     0
 76
     0
 77
     0
 78
     0
  0
ENDTAB
  0
TABLE
  2
LTYPE
  5
4
100
AcDbSymbolTable
 70
    15
  0
LTYPE
  5
11
100
AcDbSymbolTableRecord
100
AcDbLinetypeTableRecord
  2
BYBLOCK
 70
     0
  3

 72
    65
 73
     0
 40
0.0
  0
LTYPE
  5
12
100
AcDbSymbolTableRecord
100
AcDbLinetypeTableRecord
  2
BYLAYER
 70
     0
  3

 72
    65
 73
     0
 40
0.0
  0
LTYPE
  5
13
100
AcDbSymbolTableRecord
100
AcDbLinetypeTableRecord
  2
CONTINUOUS
 70
     0
  3
Solid line
 72
    65
 73
     0
 40
0.0
  0
LTYPE
  5
1E
100
AcDbSymbolTableRecord
100
AcDbLinetypeTableRecord
  2
CONTINUOUS
 70
     0
  3
Solid line
 72
    65
 73
     0
 40
0.0
  0
LTYPE
  5
1F
100
AcDbSymbolTableRecord
100
AcDbLinetypeTableRecord
  2
BORDER
 70
    64
  3
__ __ . __ __ . __ __ . __ __ . __ __ . __ __ .
 72
    65
 73
     6
 40
1.75
 49
0.5
 74
     0
 49
-0.25
 74
     0
 49
0.5
 74
     0
 49
-0.25
 74
     0
 49
0.0
 74
     0
 49
-0.25
 74
     0
  0
LTYPE
  5
20
100
AcDbSymbolTableRecord
100
AcDbLinetypeTableRecord
  2
BORDER2
 70
    64
  3
__.__.__.__.__.__.__.__.__.__.__.__.__.__.__.__
 72
    65
 73
     6
 40
0.875
 49
0.25
 74
     0
 49
-0.125
 74
     0
 49
0.25
 74
     0
 49
-0.125
 74
     0
 49
0.0
 74
     0
 49
-0.125
 74
     0
  0
LTYPE
  5
21
100
AcDbSymbolTableRecord
100
AcDbLinetypeTableRecord
  2
CENTER
 70
    64
  3
____ _ ____ _ ____ _ ____ _ ____ _ ____ _ ____ 
 72
    65
 73
     4
 40
2.0
 49
1.25
 74
     0
 49
-0.25
 74
     0
 49
0.25
 74
     0
 49
-0.25
 74
     0
  0
LTYPE
  5
22
100
AcDbSymbolTableRecord
100
AcDbLinetypeTableRecord
  2
DASHDOT
 70
    64
  3
__ . __ . __ . __ . __ . __ . __ . __ . __ . __
 72
    65
 73
     4
 40
1.0
 49
0.5
 74
     0
 49
-0.25
 74
     0
 49
0.0
 74
     0
 49
-0.25
 74
     0
  0
LTYPE
  5
23
100
AcDbSymbolTableRecord
100
AcDbLinetypeTableRecord
  2
DASHDOT2
 70
    64
  3
_._._._._._._._._._._._._._._._._._._._._._._._
 72
    65
 73
     4
 40
0.5
 49
0.25
 74
     0
 49
-0.125
 74
     0
 49
0.0
 74
     0
 49
-0.125
 74
     0
  0
LTYPE
  5
24
100
AcDbSymbolTableRecord
100
AcDbLinetypeTableRecord
  2
DASHED
 70
    64
  3
__ __ __ __ __ __ __ __ __ __ __ __ __ __ __ __
 72
    65
 73
     2
 40
0.75
 49
0.5
 74
     0
 49
-0.25
 74
     0
  0
LTYPE
  5
25
100
AcDbSymbolTableRecord
100
AcDbLinetypeTableRecord
  2
DIVIDE
 70
    64
  3
____ . . ____ . . ____ . . ____ . . ____ . . __
 72
    65
 73
     6
 40
1.25
 49
0.5
 74
     0
 49
-0.25
 74
     0
 49
0.0
 74
     0
 49
-0.25
 74
     0
 49
0.0
 74
     0
 49
-0.25
 74
     0
  0
LTYPE
  5
26
100
AcDbSymbolTableRecord
100
AcDbLinetypeTableRecord
  2
DIVIDE2
 70
    64
  3
__..__..__..__..__..__..__..__..__..__..__..__.
 72
    65
 73
     6
 40
0.625
 49
0.25
 74
     0
 49
-0.125
 74
     0
 49
0.0
 74
     0
 49
-0.125
 74
     0
 49
0.0
 74
     0
 49
-0.125
 74
     0
  0
LTYPE
  5
27
100
AcDbSymbolTableRecord
100
AcDbLinetypeTableRecord
  2
DOT
 70
    64
  3
. . . . . . . . . . . . . . . . . . . . . . . .
 72
    65
 73
     2
 40
0.25
 49
0.0
 74
     0
 49
-0.25
 74
     0
  0
LTYPE
  5
28
100
AcDbSymbolTableRecord
100
AcDbLinetypeTableRecord
  2
HIDDEN
 70
    64
  3
__ __ __ __ __ __ __ __ __ __ __ __ __ __ __ __
 72
    65
 73
     2
 40
0.375
 49
0.25
 74
     0
 49
-0.125
 74
     0
  0
LTYPE
  5
29
100
AcDbSymbolTableRecord
100
AcDbLinetypeTableRecord
  2
PHANTOM
 70
    64
  3
______  __  __  ______  __  __  ______  __  __ 
 72
    65
 73
     6
 40
2.5
 49
1.25
 74
     0
 49
-0.25
 74
     0
 49
0.25
 74
     0
 49
-0.25
 74
     0
 49
0.25
 74
     0
 49
-0.25
 74
     0
  0
ENDTAB
  0
TABLE
  2
LAYER
  5
2
100
AcDbSymbolTable
 70
     3
  0
LAYER
  5
14
100
AcDbSymbolTableRecord
100
AcDbLayerTableRecord
  2
0
 70
     0
 62
     7
  6
CONTINUOUS
  0
LAYER
  5
2A
100
AcDbSymbolTableRecord
100
AcDbLayerTableRecord
  2
1
 70
     0
 62
   250
  6
CONTINUOUS
  0
LAYER
  5
2B
100
AcDbSymbolTableRecord
100
AcDbLayerTableRecord
  2
4
 70
     0
 62
   250
  6
CONTINUOUS
  0
ENDTAB
  0
TABLE
  2
STYLE
  5
3
100
AcDbSymbolTable
 70
     2
  0
STYLE
  5
17
100
AcDbSymbolTableRecord
100
AcDbTextStyleTableRecord
  2
STANDARD
 70
     0
 40
0.0
 41
1.0
 50
0.0
 71
     0
 42
0.0
  3
txt
  4

  0
STYLE
  5
1D
100
AcDbSymbolTableRecord
100
AcDbTextStyleTableRecord
  2
BIGFONT
 70
    64
 40
3.0
 41
1.0
 50
0.0
 71
     0
 42
0.2
  3

  4
BIGFONT
  0
ENDTAB
  0
TABLE
  2
VIEW
  5
5
100
AcDbSymbolTable
 70
     0
  0
ENDTAB
  0
TABLE
  2
UCS
  5
6
100
AcDbSymbolTable
 70
     0
  0
ENDTAB
  0
TABLE
  2
APPID
  5
8
100
AcDbSymbolTable
 70
     1
  0
APPID
  5
16
100
AcDbSymbolTableRecord
100
AcDbRegAppTableRecord
  2
ACAD
 70
     0
  0
ENDTAB
  0
TABLE
  2
DIMSTYLE
  5
9
100
AcDbSymbolTable
 70
     1
  0
DIMSTYLE
105
18
100
AcDbSymbolTableRecord
100
AcDbDimStyleTableRecord
  2
STANDARD
 70
     0
  3

  4

  5

  6

  7

 40
1.0
 41
0.18
 42
0.0625
 43
0.38
 44
0.18
 45
0.0
 46
0.0
 47
0.0
 48
0.0
140
0.18
141
0.09
142
0.0
143
25.4
144
1.0
145
0.0
146
1.0
147
0.09
 71
     0
 72
     0
 73
     1
 74
     1
 75
     0
 76
     0
 77
     0
 78
     0
170
     0
171
     2
172
     0
173
     0
174
     0
175
     0
176
     0
177
     0
178
     0
270
     2
271
     4
272
     4
273
     2
274
     2
340
17
275
     0
280
     0
281
     0
282
     0
283
     1
284
     0
285
     0
286
     0
287
     0
288
     0
  0
ENDTAB
  0
TABLE
  2
BLOCK_RECORD
  5
1
100
AcDbSymbolTable
 70
     0
  0
BLOCK_RECORD
  5
A
100
AcDbSymbolTableRecord
100
AcDbBlockTableRecord
  2
*MODEL_SPACE
  0
BLOCK_RECORD
  5
B
100
AcDbSymbolTableRecord
100
AcDbBlockTableRecord
  2
*PAPER_SPACE
  0
ENDTAB
  0
ENDSEC
  0
SECTION
  2
BLOCKS
  0
BLOCK
  5
D
100
AcDbEntity
  8
0
100
AcDbBlockBegin
  2
*MODEL_SPACE
 70
     0
 10
0.0
 20
0.0
 30
0.0
  3
*MODEL_SPACE
  1

  0
ENDBLK
  5
E
100
AcDbEntity
  8
0
100
AcDbBlockEnd
  0
BLOCK
  5
F
100
AcDbEntity
 67
     1
  8
0
100
AcDbBlockBegin
  2
*PAPER_SPACE
 70
     0
 10
0.0
 20
0.0
 30
0.0
  3
*PAPER_SPACE
  1

  0
ENDBLK
  5
10
100
AcDbEntity
 67
     1
  8
0
100
AcDbBlockEnd
  0
ENDSEC
  0
SECTION
  2
ENTITIES
  0
POLYLINE
  5
2D
100
AcDbEntity
  8
4
  6
CONTINUOUS
 62
   250
 48
0.1
100
AcDb2dPolyline
 66
     1
 10
0.0
 20
0.0
 30
0.0
 70
   128
  0
VERTEX
  5
2E
100
AcDbEntity
  8
4
  6
CONTINUOUS
 62
   250
 48
0.1
100
AcDbVertex
100
AcDb2dVertex
 10
1.980925
 20
3.769937
 30
0.0
 40
0.0
 41
0.0
  0
VERTEX
  5
2F
100
AcDbEntity
  8
4
  6
CONTINUOUS
 62
   250
 48
0.1
100
AcDbVertex
100
AcDb2dVertex
 10
1.980925
 20
4.014937
 30
0.0
 40
0.0
 41
0.0
  0
SEQEND
  5
30
100
AcDbEntity
  8
0
  0
POLYLINE
  5
31
100
AcDbEntity
  8
4
  6
CONTINUOUS
 62
   250
 48
0.1
100
AcDb2dPolyline
 66
     1
 10
0.0
 20
0.0
 30
0.0
 70
   128
  0
VERTEX
  5
32
100
AcDbEntity
  8
4
  6
CONTINUOUS
 62
   250
 48
0.1
100
AcDbVertex
100
AcDb2dVertex
 10
1.980925
 20
1.009937
 30
0.0
 40
0.0
 41
0.0
  0
VERTEX
  5
33
100
AcDbEntity
  8
4
  6
CONTINUOUS
 62
   250
 48
0.1
100
AcDbVertex
100
AcDb2dVertex
 10
1.980925
 20
0.764937
 30
0.0
 40
0.0
 41
0.0
  0
SEQEND
  5
34
100
AcDbEntity
  8
0
  0
POLYLINE
  5
35
100
AcDbEntity
  8
4
  6
CONTINUOUS
 62
   250
 48
0.1
100
AcDb2dPolyline
 66
     1
 10
0.0
 20
0.0
 30
0.0
 70
   128
  0
VERTEX
  5
36
100
AcDbEntity
  8
4
  6
CONTINUOUS
 62
   250
 48
0.1
100
AcDbVertex
100
AcDb2dVertex
 10
3.550925
 20
3.519937
 30
0.0
 40
0.0
 41
0.0
  0
VERTEX
  5
37
100
AcDbEntity
  8
4
  6
CONTINUOUS
 62
   250
 48
0.1
100
AcDbVertex
100
AcDb2dVertex
 10
3.550925
 20
4.014937
 30
0.0
 40
0.0
 41
0.0
  0
SEQEND
  5
38
100
AcDbEntity
  8
0
  0
POLYLINE
  5
39
100
AcDbEntity
  8
4
  6
CONTINUOUS
 62
   250
 48
0.1
100
AcDb2dPolyline
 66
     1
 10
0.0
 20
0.0
 30
0.0
 70
   128
  0
VERTEX
  5
3A
100
AcDbEntity
  8
4
  6
CONTINUOUS
 62
   250
 48
0.1
100
AcDbVertex
100
AcDb2dVertex
 10
3.547924
 20
1.259937
 30
0.0
 40
0.0
 41
0.0
  0
VERTEX
  5
3B
100
AcDbEntity
  8
4
  6
CONTINUOUS
 62
   250
 48
0.1
100
AcDbVertex
100
AcDb2dVertex
 10
3.547924
 20
0.764937
 30
0.0
 40
0.0
 41
0.0
  0
SEQEND
  5
3C
100
AcDbEntity
  8
0
  0
POLYLINE
  5
3D
100
AcDbEntity
  8
4
  6
HIDDEN
 62
   250
 48
0.1
100
AcDb2dPolyline
 66
     1
 10
0.0
 20
0.0
 30
0.0
 70
   128
  0
VERTEX
  5
3E
100
AcDbEntity
  8
4
  6
HIDDEN
 62
   250
 48
0.1
100
AcDbVertex
100
AcDb2dVertex
 10
1.980925
 20
3.769937
 30
0.0
 40
0.0
 41
0.0
  0
VERTEX
  5
3F
100
AcDbEntity
  8
4
  6
HIDDEN
 62
   250
 48
0.1
100
AcDbVertex
100
AcDb2dVertex
 10
2.480925
 20
3.769937
 30
0.0
 40
0.0
 41
0.0
  0
VERTEX
  5
40
100
AcDbEntity
  8
4
  6
HIDDEN
 62
   250
 48
0.1
100
AcDbVertex
100
AcDb2dVertex
 10
2.480925
 20
3.519937
 30
0.0
 40
0.0
 41
0.0
  0
VERTEX
  5
41
100
AcDbEntity
  8
4
  6
HIDDEN
 62
   250
 48
0.1
100
AcDbVertex
100
AcDb2dVertex
 10
3.550925
 20
3.519937
 30
0.0
 40
0.0
 41
0.0
  0
SEQEND
  5
42
100
AcDbEntity
  8
0
  0
POLYLINE
  5
43
100
AcDbEntity
  8
4
  6
HIDDEN
 62
   250
 48
0.1
100
AcDb2dPolyline
 66
     1
 10
0.0
 20
0.0
 30
0.0
 70
   128
  0
VERTEX
  5
44
100
AcDbEntity
  8
4
  6
HIDDEN
 62
   250
 48
0.1
100
AcDbVertex
100
AcDb2dVertex
 10
1.980925
 20
1.009937
 30
0.0
 40
0.0
 41
0.0
  0
VERTEX
  5
45
100
AcDbEntity
  8
4
  6
HIDDEN
 62
   250
 48
0.1
100
AcDbVertex
100
AcDb2dVertex
 10
2.480925
 20
1.009937
 30
0.0
 40
0.0
 41
0.0
  0
VERTEX
  5
46
100
AcDbEntity
  8
4
  6
HIDDEN
 62
   250
 48
0.1
100
AcDbVertex
100
AcDb2dVertex
 10
2.480925
 20
1.259937
 30
0.0
 40
0.0
 41
0.0
  0
VERTEX
  5
47
100
AcDbEntity
  8
4
  6
HIDDEN
 62
   250
 48
0.1
100
AcDbVertex
100
AcDb2dVertex
 10
3.547924
 20
1.259937
 30
0.0
 40
0.0
 41
0.0
  0
SEQEND
  5
48
100
AcDbEntity
  8
0
  0
POLYLINE
  5
49
100
AcDbEntity
  8
4
  6
CONTINUOUS
 62
   250
 48
0.1
100
AcDb2dPolyline
 66
     1
 10
0.0
 20
0.0
 30
0.0
 70
   128
  0
VERTEX
  5
4A
100
AcDbEntity
  8
4
  6
CONTINUOUS
 62
   250
 48
0.1
100
AcDbVertex
100
AcDb2dVertex
 10
3.550925
 20
4.014937
 30
0.0
 40
0.0
 41
0.0
  0
VERTEX
  5
4B
100
AcDbEntity
  8
4
  6
CONTINUOUS
 62
   250
 48
0.1
100
AcDbVertex
100
AcDb2dVertex
 10
3.300925
 20
4.014937
 30
0.0
 40
0.0
 41
0.0
  0
VERTEX
  5
4C
100
AcDbEntity
  8
4
  6
CONTINUOUS
 62
   250
 48
0.1
100
AcDbVertex
100
AcDb2dVertex
 10
3.300925
 20
3.764937
 30
0.0
 40
0.0
 41
0.0
  0
VERTEX
  5
4D
100
AcDbEntity
  8
4
  6
CONTINUOUS
 62
   250
 48
0.1
100
AcDbVertex
100
AcDb2dVertex
 10
2.800925
 20
3.764937
 30
0.0
 40
0.0
 41
0.0
  0
VERTEX
  5
4E
100
AcDbEntity
  8
4
  6
CONTINUOUS
 62
   250
 48
0.1
100
AcDbVertex
100
AcDb2dVertex
 10
2.800925
 20
4.014937
 30
0.0
 40
0.0
 41
0.0
  0
VERTEX
  5
4F
100
AcDbEntity
  8
4
  6
CONTINUOUS
 62
   250
 48
0.1
100
AcDbVertex
100
AcDb2dVertex
 10
1.980925
 20
4.014937
 30
0.0
 40
0.0
 41
0.0
  0
SEQEND
  5
50
100
AcDbEntity
  8
0
  0
POLYLINE
  5
51
100
AcDbEntity
  8
4
  6
CONTINUOUS
 62
   250
 48
0.1
100
AcDb2dPolyline
 66
     1
 10
0.0
 20
0.0
 30
0.0
 70
   128
  0
VERTEX
  5
52
100
AcDbEntity
  8
4
  6
CONTINUOUS
 62
   250
 48
0.1
100
AcDbVertex
100
AcDb2dVertex
 10
3.547924
 20
0.764937
 30
0.0
 40
0.0
 41
0.0
  0
VERTEX
  5
53
100
AcDbEntity
  8
4
  6
CONTINUOUS
 62
   250
 48
0.1
100
AcDbVertex
100
AcDb2dVertex
 10
3.297924
 20
0.764937
 30
0.0
 40
0.0
 41
0.0
  0
VERTEX
  5
54
100
AcDbEntity
  8
4
  6
CONTINUOUS
 62
   250
 48
0.1
100
AcDbVertex
100
AcDb2dVertex
 10
3.297924
 20
1.014937
 30
0.0
 40
0.0
 41
0.0
  0
VERTEX
  5
55
100
AcDbEntity
  8
4
  6
CONTINUOUS
 62
   250
 48
0.1
100
AcDbVertex
100
AcDb2dVertex
 10
2.797924
 20
1.014937
 30
0.0
 40
0.0
 41
0.0
  0
VERTEX
  5
56
100
AcDbEntity
  8
4
  6
CONTINUOUS
 62
   250
 48
0.1
100
AcDbVertex
100
AcDb2dVertex
 10
2.797924
 20
0.764937
 30
0.0
 40
0.0
 41
0.0
  0
VERTEX
  5
57
100
AcDbEntity
  8
4
  6
CONTINUOUS
 62
   250
 48
0.1
100
AcDbVertex
100
AcDb2dVertex
 10
1.980925
 20
0.764937
 30
0.0
 40
0.0
 41
0.0
  0
SEQEND
  5
58
100
AcDbEntity
  8
0
  0
POLYLINE
  5
59
100
AcDbEntity
  8
1
  6
CONTINUOUS
 62
   250
 48
0.1
100
AcDb2dPolyline
 66
     1
 10
0.0
 20
0.0
 30
0.0
 70
   128
  0
VERTEX
  5
5A
100
AcDbEntity
  8
1
  6
CONTINUOUS
 62
   250
 48
0.1
100
AcDbVertex
100
AcDb2dVertex
 10
1.980925
 20
3.769937
 30
0.0
 40
0.0
 41
0.0
  0
VERTEX
  5
5B
100
AcDbEntity
  8
1
  6
CONTINUOUS
 62
   250
 48
0.1
100
AcDbVertex
100
AcDb2dVertex
 10
1.980925
 20
1.009937
 30
0.0
 40
0.0
 41
0.0
  0
SEQEND
  5
5C
100
AcDbEntity
  8
0
  0
POLYLINE
  5
5D
100
AcDbEntity
  8
1
  6
HIDDEN
 62
   250
 48
0.1
100
AcDb2dPolyline
 66
     1
 10
0.0
 20
0.0
 30
0.0
 70
   128
  0
VERTEX
  5
5E
100
AcDbEntity
  8
1
  6
HIDDEN
 62
   250
 48
0.1
100
AcDbVertex
100
AcDb2dVertex
 10
2.480925
 20
3.519937
 30
0.0
 40
0.0
 41
0.0
  0
VERTEX
  5
5F
100
AcDbEntity
  8
1
  6
HIDDEN
 62
   250
 48
0.1
100
AcDbVertex
100
AcDb2dVertex
 10
2.480925
 20
1.259937
 30
0.0
 40
0.0
 41
0.0
  0
SEQEND
  5
60
100
AcDbEntity
  8
0
  0
POLYLINE
  5
61
100
AcDbEntity
  8
1
  6
CONTINUOUS
 62
   250
 48
0.1
100
AcDb2dPolyline
 66
     1
 10
0.0
 20
0.0
 30
0.0
 70
   128
  0
VERTEX
  5
62
100
AcDbEntity
  8
1
  6
CONTINUOUS
 62
   250
 48
0.1
100
AcDbVertex
100
AcDb2dVertex
 10
3.550925
 20
3.519937
 30
0.0
 40
0.0
 41
0.0
  0
VERTEX
  5
63
100
AcDbEntity
  8
1
  6
CONTINUOUS
 62
   250
 48
0.1
100
AcDbVertex
100
AcDb2dVertex
 10
3.547924
 20
1.259937
 30
0.0
 40
0.0
 41
0.0
  0
SEQEND
  5
64
100
AcDbEntity
  8
0
  0
POLYLINE
  5
65
100
AcDbEntity
  8
1
  6
CONTINUOUS
 62
   250
 48
0.1
100
AcDb2dPolyline
 66
     1
 10
0.0
 20
0.0
 30
0.0
 70
   128
  0
VERTEX
  5
66
100
AcDbEntity
  8
1
  6
CONTINUOUS
 62
   250
 48
0.1
100
AcDbVertex
100
AcDb2dVertex
 10
2.800925
 20
3.764937
 30
0.0
 40
0.0
 41
0.0
  0
VERTEX
  5
67
100
AcDbEntity
  8
1
  6
CONTINUOUS
 62
   250
 48
0.1
100
AcDbVertex
100
AcDb2dVertex
 10
2.797924
 20
1.014937
 30
0.0
 40
0.0
 41
0.0
  0
SEQEND
  5
68
100
AcDbEntity
  8
0
  0
POLYLINE
  5
69
100
AcDbEntity
  8
1
  6
CONTINUOUS
 62
   250
 48
0.1
100
AcDb2dPolyline
 66
     1
 10
0.0
 20
0.0
 30
0.0
 70
   128
  0
VERTEX
  5
6A
100
AcDbEntity
  8
1
  6
CONTINUOUS
 62
   250
 48
0.1
100
AcDbVertex
100
AcDb2dVertex
 10
3.300925
 20
3.764937
 30
0.0
 40
0.0
 41
0.0
  0
VERTEX
  5
6B
100
AcDbEntity
  8
1
  6
CONTINUOUS
 62
   250
 48
0.1
100
AcDbVertex
100
AcDb2dVertex
 10
3.297924
 20
1.014937
 30
0.0
 40
0.0
 41
0.0
  0
SEQEND
  5
6C
100
AcDbEntity
  8
0
  0
CIRCLE
  5
6D
100
AcDbEntity
  8
1
  6
CONTINUOUS
 62
   250
 48
0.1
100
AcDbCircle
 10
-5.549425
 20
2.389937
 30
0.0
 40
1.625
210
0.0
220
0.0
230
-1.0
  0
CIRCLE
  5
6E
100
AcDbEntity
  8
1
  6
CONTINUOUS
 62
   250
 48
0.1
100
AcDbCircle
 10
-5.549425
 20
2.389937
 30
0.0
 40
1.38
210
0.0
220
0.0
230
-1.0
  0
CIRCLE
  5
6F
100
AcDbEntity
  8
1
  6
CONTINUOUS
 62
   250
 48
0.1
100
AcDbCircle
 10
-5.549425
 20
2.389937
 30
0.0
 40
1.13
210
0.0
220
0.0
230
-1.0
  0
POLYLINE
  5
70
100
AcDbEntity
  8
1
  6
CONTINUOUS
 62
   250
 48
0.1
100
AcDb2dPolyline
 66
     1
 10
0.0
 20
0.0
 30
0.0
 70
   128
  0
VERTEX
  5
71
100
AcDbEntity
  8
1
  6
CONTINUOUS
 62
   250
 48
0.1
100
AcDbVertex
100
AcDb2dVertex
 10
2.380925
 20
1.259937
 30
0.0
 40
0.0
 41
0.0
  0
VERTEX
  5
72
100
AcDbEntity
  8
1
  6
CONTINUOUS
 62
   250
 48
0.1
100
AcDbVertex
100
AcDb2dVertex
 10
1.595813
 20
1.259937
 30
0.0
 40
0.0
 41
0.0
  0
SEQEND
  5
73
100
AcDbEntity
  8
0
  0
POLYLINE
  5
74
100
AcDbEntity
  8
1
  6
CONTINUOUS
 62
   250
 48
0.1
100
AcDb2dPolyline
 66
     1
 10
0.0
 20
0.0
 30
0.0
 70
   128
  0
VERTEX
  5
75
100
AcDbEntity
  8
1
  6
CONTINUOUS
 62
   250
 48
0.1
100
AcDbVertex
100
AcDb2dVertex
 10
2.380925
 20
3.519937
 30
0.0
 40
0.0
 41
0.0
  0
VERTEX
  5
76
100
AcDbEntity
  8
1
  6
CONTINUOUS
 62
   250
 48
0.1
100
AcDbVertex
100
AcDb2dVertex
 10
1.595813
 20
3.519937
 30
0.0
 40
0.0
 41
0.0
  0
SEQEND
  5
77
100
AcDbEntity
  8
0
  0
POLYLINE
  5
78
100
AcDbEntity
  8
1
  6
CONTINUOUS
 62
   250
 48
0.1
100
AcDb2dPolyline
 66
     1
 10
0.0
 20
0.0
 30
0.0
 70
   128
  0
VERTEX
  5
79
100
AcDbEntity
  8
1
  6
CONTINUOUS
 62
   250
 48
0.1
100
AcDbVertex
100
AcDb2dVertex
 10
1.645813
 20
2.149461
 30
0.0
 40
0.0
 41
0.0
  0
VERTEX
  5
7A
100
AcDbEntity
  8
1
  6
CONTINUOUS
 62
   250
 48
0.1
100
AcDbVertex
100
AcDb2dVertex
 10
1.645813
 20
1.259937
 30
0.0
 40
0.0
 41
0.0
  0
SEQEND
  5
7B
100
AcDbEntity
  8
0
  0
POLYLINE
  5
7C
100
AcDbEntity
  8
1
  6
CONTINUOUS
 62
   250
 48
0.1
100
AcDb2dPolyline
 66
     1
 10
0.0
 20
0.0
 30
0.0
 70
   128
  0
VERTEX
  5
7D
100
AcDbEntity
  8
1
  6
CONTINUOUS
 62
   250
 48
0.1
100
AcDbVertex
100
AcDb2dVertex
 10
1.665813
 20
1.359937
 30
0.0
 40
0.0
 41
0.0
  0
VERTEX
  5
7E
100
AcDbEntity
  8
1
  6
CONTINUOUS
 62
   250
 48
0.1
100
AcDbVertex
100
AcDb2dVertex
 10
1.645813
 20
1.259937
 30
0.0
 40
0.0
 41
0.0
  0
VERTEX
  5
7F
100
AcDbEntity
  8
1
  6
CONTINUOUS
 62
   250
 48
0.1
100
AcDbVertex
100
AcDb2dVertex
 10
1.625813
 20
1.359937
 30
0.0
 40
0.0
 41
0.0
  0
SEQEND
  5
80
100
AcDbEntity
  8
0
  0
POLYLINE
  5
81
100
AcDbEntity
  8
1
  6
CONTINUOUS
 62
   250
 48
0.1
100
AcDb2dPolyline
 66
     1
 10
0.0
 20
0.0
 30
0.0
 70
   128
  0
VERTEX
  5
82
100
AcDbEntity
  8
1
  6
CONTINUOUS
 62
   250
 48
0.1
100
AcDbVertex
100
AcDb2dVertex
 10
1.645813
 20
2.630413
 30
0.0
 40
0.0
 41
0.0
  0
VERTEX
  5
83
100
AcDbEntity
  8
1
  6
CONTINUOUS
 62
   250
 48
0.1
100
AcDbVertex
100
AcDb2dVertex
 10
1.645813
 20
3.519937
 30
0.0
 40
0.0
 41
0.0
  0
SEQEND
  5
84
100
AcDbEntity
  8
0
  0
POLYLINE
  5
85
100
AcDbEntity
  8
1
  6
CONTINUOUS
 62
   250
 48
0.1
100
AcDb2dPolyline
 66
     1
 10
0.0
 20
0.0
 30
0.0
 70
   128
  0
VERTEX
  5
86
100
AcDbEntity
  8
1
  6
CONTINUOUS
 62
   250
 48
0.1
100
AcDbVertex
100
AcDb2dVertex
 10
1.625813
 20
3.419937
 30
0.0
 40
0.0
 41
0.0
  0
VERTEX
  5
87
100
AcDbEntity
  8
1
  6
CONTINUOUS
 62
   250
 48
0.1
100
AcDbVertex
100
AcDb2dVertex
 10
1.645813
 20
3.519937
 30
0.0
 40
0.0
 41
0.0
  0
VERTEX
  5
88
100
AcDbEntity
  8
1
  6
CONTINUOUS
 62
   250
 48
0.1
100
AcDbVertex
100
AcDb2dVertex
 10
1.665813
 20
3.419937
 30
0.0
 40
0.0
 41
0.0
  0
SEQEND
  5
89
100
AcDbEntity
  8
0
  0
TEXT
  5
8A
100
AcDbEntity
  8
1
 62
   250
 48
0.0
100
AcDbText
 10
1.695813
 20
2.199461
 30
0.0
 40
0.1
  1
2.260
 50
90.0
 72
     5
 11
1.695813
 21
2.580413
 31
0.0
210
0.0
220
0.0
230
1.0
100
AcDbText
  0
POLYLINE
  5
8B
100
AcDbEntity
  8
1
  6
CONTINUOUS
 62
   250
 48
0.1
100
AcDb2dPolyline
 66
     1
 10
0.0
 20
0.0
 30
0.0
 70
   128
  0
VERTEX
  5
8C
100
AcDbEntity
  8
1
  6
CONTINUOUS
 62
   250
 48
0.1
100
AcDbVertex
100
AcDb2dVertex
 10
1.880925
 20
1.009937
 30
0.0
 40
0.0
 41
0.0
  0
VERTEX
  5
8D
100
AcDbEntity
  8
1
  6
CONTINUOUS
 62
   250
 48
0.1
100
AcDbVertex
100
AcDb2dVertex
 10
1.157673
 20
1.009937
 30
0.0
 40
0.0
 41
0.0
  0
SEQEND
  5
8E
100
AcDbEntity
  8
0
  0
POLYLINE
  5
8F
100
AcDbEntity
  8
1
  6
CONTINUOUS
 62
   250
 48
0.1
100
AcDb2dPolyline
 66
     1
 10
0.0
 20
0.0
 30
0.0
 70
   128
  0
VERTEX
  5
90
100
AcDbEntity
  8
1
  6
CONTINUOUS
 62
   250
 48
0.1
100
AcDbVertex
100
AcDb2dVertex
 10
1.880925
 20
3.769937
 30
0.0
 40
0.0
 41
0.0
  0
VERTEX
  5
91
100
AcDbEntity
  8
1
  6
CONTINUOUS
 62
   250
 48
0.1
100
AcDbVertex
100
AcDb2dVertex
 10
1.157673
 20
3.769937
 30
0.0
 40
0.0
 41
0.0
  0
SEQEND
  5
92
100
AcDbEntity
  8
0
  0
POLYLINE
  5
93
100
AcDbEntity
  8
1
  6
CONTINUOUS
 62
   250
 48
0.1
100
AcDb2dPolyline
 66
     1
 10
0.0
 20
0.0
 30
0.0
 70
   128
  0
VERTEX
  5
94
100
AcDbEntity
  8
1
  6
CONTINUOUS
 62
   250
 48
0.1
100
AcDbVertex
100
AcDb2dVertex
 10
1.207673
 20
2.15089
 30
0.0
 40
0.0
 41
0.0
  0
VERTEX
  5
95
100
AcDbEntity
  8
1
  6
CONTINUOUS
 62
   250
 48
0.1
100
AcDbVertex
100
AcDb2dVertex
 10
1.207673
 20
1.009937
 30
0.0
 40
0.0
 41
0.0
  0
SEQEND
  5
96
100
AcDbEntity
  8
0
  0
POLYLINE
  5
97
100
AcDbEntity
  8
1
  6
CONTINUOUS
 62
   250
 48
0.1
100
AcDb2dPolyline
 66
     1
 10
0.0
 20
0.0
 30
0.0
 70
   128
  0
VERTEX
  5
98
100
AcDbEntity
  8
1
  6
CONTINUOUS
 62
   250
 48
0.1
100
AcDbVertex
100
AcDb2dVertex
 10
1.227673
 20
1.109937
 30
0.0
 40
0.0
 41
0.0
  0
VERTEX
  5
99
100
AcDbEntity
  8
1
  6
CONTINUOUS
 62
   250
 48
0.1
100
AcDbVertex
100
AcDb2dVertex
 10
1.207673
 20
1.009937
 30
0.0
 40
0.0
 41
0.0
  0
VERTEX
  5
9A
100
AcDbEntity
  8
1
  6
CONTINUOUS
 62
   250
 48
0.1
100
AcDbVertex
100
AcDb2dVertex
 10
1.187674
 20
1.109937
 30
0.0
 40
0.0
 41
0.0
  0
SEQEND
  5
9B
100
AcDbEntity
  8
0
  0
POLYLINE
  5
9C
100
AcDbEntity
  8
1
  6
CONTINUOUS
 62
   250
 48
0.1
100
AcDb2dPolyline
 66
     1
 10
0.0
 20
0.0
 30
0.0
 70
   128
  0
VERTEX
  5
9D
100
AcDbEntity
  8
1
  6
CONTINUOUS
 62
   250
 48
0.1
100
AcDbVertex
100
AcDb2dVertex
 10
1.207673
 20
2.628985
 30
0.0
 40
0.0
 41
0.0
  0
VERTEX
  5
9E
100
AcDbEntity
  8
1
  6
CONTINUOUS
 62
   250
 48
0.1
100
AcDbVertex
100
AcDb2dVertex
 10
1.207673
 20
3.769937
 30
0.0
 40
0.0
 41
0.0
  0
SEQEND
  5
9F
100
AcDbEntity
  8
0
  0
POLYLINE
  5
A0
100
AcDbEntity
  8
1
  6
CONTINUOUS
 62
   250
 48
0.1
100
AcDb2dPolyline
 66
     1
 10
0.0
 20
0.0
 30
0.0
 70
   128
  0
VERTEX
  5
A1
100
AcDbEntity
  8
1
  6
CONTINUOUS
 62
   250
 48
0.1
100
AcDbVertex
100
AcDb2dVertex
 10
1.187674
 20
3.669937
 30
0.0
 40
0.0
 41
0.0
  0
VERTEX
  5
A2
100
AcDbEntity
  8
1
  6
CONTINUOUS
 62
   250
 48
0.1
100
AcDbVertex
100
AcDb2dVertex
 10
1.207673
 20
3.769937
 30
0.0
 40
0.0
 41
0.0
  0
VERTEX
  5
A3
100
AcDbEntity
  8
1
  6
CONTINUOUS
 62
   250
 48
0.1
100
AcDbVertex
100
AcDb2dVertex
 10
1.227673
 20
3.669937
 30
0.0
 40
0.0
 41
0.0
  0
SEQEND
  5
A4
100
AcDbEntity
  8
0
  0
TEXT
  5
A5
100
AcDbEntity
  8
1
 62
   250
 48
0.0
100
AcDbText
 10
1.257673
 20
2.20089
 30
0.0
 40
0.1
  1
2.760
 50
89.999985
 72
     5
 11
1.257674
 21
2.578985
 31
0.0
210
0.0
220
0.0
230
1.0
100
AcDbText
  0
POLYLINE
  5
A6
100
AcDbEntity
  8
1
  6
CONTINUOUS
 62
   250
 48
0.1
100
AcDb2dPolyline
 66
     1
 10
0.0
 20
0.0
 30
0.0
 70
   128
  0
VERTEX
  5
A7
100
AcDbEntity
  8
1
  6
CONTINUOUS
 62
   250
 48
0.1
100
AcDbVertex
100
AcDb2dVertex
 10
1.880925
 20
0.764937
 30
0.0
 40
0.0
 41
0.0
  0
VERTEX
  5
A8
100
AcDbEntity
  8
1
  6
CONTINUOUS
 62
   250
 48
0.1
100
AcDbVertex
100
AcDb2dVertex
 10
0.673103
 20
0.764937
 30
0.0
 40
0.0
 41
0.0
  0
SEQEND
  5
A9
100
AcDbEntity
  8
0
  0
POLYLINE
  5
AA
100
AcDbEntity
  8
1
  6
CONTINUOUS
 62
   250
 48
0.1
100
AcDb2dPolyline
 66
     1
 10
0.0
 20
0.0
 30
0.0
 70
   128
  0
VERTEX
  5
AB
100
AcDbEntity
  8
1
  6
CONTINUOUS
 62
   250
 48
0.1
100
AcDbVertex
100
AcDb2dVertex
 10
1.880925
 20
4.014937
 30
0.0
 40
0.0
 41
0.0
  0
VERTEX
  5
AC
100
AcDbEntity
  8
1
  6
CONTINUOUS
 62
   250
 48
0.1
100
AcDbVertex
100
AcDb2dVertex
 10
0.673103
 20
4.014937
 30
0.0
 40
0.0
 41
0.0
  0
SEQEND
  5
AD
100
AcDbEntity
  8
0
  0
POLYLINE
  5
AE
100
AcDbEntity
  8
1
  6
CONTINUOUS
 62
   250
 48
0.1
100
AcDb2dPolyline
 66
     1
 10
0.0
 20
0.0
 30
0.0
 70
   128
  0
VERTEX
  5
AF
100
AcDbEntity
  8
1
  6
CONTINUOUS
 62
   250
 48
0.1
100
AcDbVertex
100
AcDb2dVertex
 10
0.723103
 20
2.151365
 30
0.0
 40
0.0
 41
0.0
  0
VERTEX
  5
B0
100
AcDbEntity
  8
1
  6
CONTINUOUS
 62
   250
 48
0.1
100
AcDbVertex
100
AcDb2dVertex
 10
0.723103
 20
0.764937
 30
0.0
 40
0.0
 41
0.0
  0
SEQEND
  5
B1
100
AcDbEntity
  8
0
  0
POLYLINE
  5
B2
100
AcDbEntity
  8
1
  6
CONTINUOUS
 62
   250
 48
0.1
100
AcDb2dPolyline
 66
     1
 10
0.0
 20
0.0
 30
0.0
 70
   128
  0
VERTEX
  5
B3
100
AcDbEntity
  8
1
  6
CONTINUOUS
 62
   250
 48
0.1
100
AcDbVertex
100
AcDb2dVertex
 10
0.743103
 20
0.864937
 30
0.0
 40
0.0
 41
0.0
  0
VERTEX
  5
B4
100
AcDbEntity
  8
1
  6
CONTINUOUS
 62
   250
 48
0.1
100
AcDbVertex
100
AcDb2dVertex
 10
0.723103
 20
0.764937
 30
0.0
 40
0.0
 41
0.0
  0
VERTEX
  5
B5
100
AcDbEntity
  8
1
  6
CONTINUOUS
 62
   250
 48
0.1
100
AcDbVertex
100
AcDb2dVertex
 10
0.703103
 20
0.864937
 30
0.0
 40
0.0
 41
0.0
  0
SEQEND
  5
B6
100
AcDbEntity
  8
0
  0
POLYLINE
  5
B7
100
AcDbEntity
  8
1
  6
CONTINUOUS
 62
   250
 48
0.1
100
AcDb2dPolyline
 66
     1
 10
0.0
 20
0.0
 30
0.0
 70
   128
  0
VERTEX
  5
B8
100
AcDbEntity
  8
1
  6
CONTINUOUS
 62
   250
 48
0.1
100
AcDbVertex
100
AcDb2dVertex
 10
0.723103
 20
2.628509
 30
0.0
 40
0.0
 41
0.0
  0
VERTEX
  5
B9
100
AcDbEntity
  8
1
  6
CONTINUOUS
 62
   250
 48
0.1
100
AcDbVertex
100
AcDb2dVertex
 10
0.723103
 20
4.014937
 30
0.0
 40
0.0
 41
0.0
  0
SEQEND
  5
BA
100
AcDbEntity
  8
0
  0
POLYLINE
  5
BB
100
AcDbEntity
  8
1
  6
CONTINUOUS
 62
   250
 48
0.1
100
AcDb2dPolyline
 66
     1
 10
0.0
 20
0.0
 30
0.0
 70
   128
  0
VERTEX
  5
BC
100
AcDbEntity
  8
1
  6
CONTINUOUS
 62
   250
 48
0.1
100
AcDbVertex
100
AcDb2dVertex
 10
0.703103
 20
3.914937
 30
0.0
 40
0.0
 41
0.0
  0
VERTEX
  5
BD
100
AcDbEntity
  8
1
  6
CONTINUOUS
 62
   250
 48
0.1
100
AcDbVertex
100
AcDb2dVertex
 10
0.723103
 20
4.014937
 30
0.0
 40
0.0
 41
0.0
  0
VERTEX
  5
BE
100
AcDbEntity
  8
1
  6
CONTINUOUS
 62
   250
 48
0.1
100
AcDbVertex
100
AcDb2dVertex
 10
0.743103
 20
3.914937
 30
0.0
 40
0.0
 41
0.0
  0
SEQEND
  5
BF
100
AcDbEntity
  8
0
  0
TEXT
  5
C0
100
AcDbEntity
  8
1
 62
   250
 48
0.0
100
AcDbText
 10
0.773103
 20
2.201366
 30
0.0
 40
0.1
  1
3.250
 50
89.999992
 72
     5
 11
0.773103
 21
2.578509
 31
0.0
210
0.0
220
0.0
230
1.0
100
AcDbText
  0
POLYLINE
  5
C1
100
AcDbEntity
  8
1
  6
CONTINUOUS
 62
   250
 48
0.1
100
AcDb2dPolyline
 66
     1
 10
0.0
 20
0.0
 30
0.0
 70
   128
  0
VERTEX
  5
C2
100
AcDbEntity
  8
1
  6
CONTINUOUS
 62
   250
 48
0.1
100
AcDbVertex
100
AcDb2dVertex
 10
1.980925
 20
4.114938
 30
0.0
 40
0.0
 41
0.0
  0
VERTEX
  5
C3
100
AcDbEntity
  8
1
  6
CONTINUOUS
 62
   250
 48
0.1
100
AcDbVertex
100
AcDb2dVertex
 10
1.980925
 20
4.817568
 30
0.0
 40
0.0
 41
0.0
  0
SEQEND
  5
C4
100
AcDbEntity
  8
0
  0
POLYLINE
  5
C5
100
AcDbEntity
  8
1
  6
CONTINUOUS
 62
   250
 48
0.1
100
AcDb2dPolyline
 66
     1
 10
0.0
 20
0.0
 30
0.0
 70
   128
  0
VERTEX
  5
C6
100
AcDbEntity
  8
1
  6
CONTINUOUS
 62
   250
 48
0.1
100
AcDbVertex
100
AcDb2dVertex
 10
3.550925
 20
4.114938
 30
0.0
 40
0.0
 41
0.0
  0
VERTEX
  5
C7
100
AcDbEntity
  8
1
  6
CONTINUOUS
 62
   250
 48
0.1
100
AcDbVertex
100
AcDb2dVertex
 10
3.550925
 20
4.817568
 30
0.0
 40
0.0
 41
0.0
  0
SEQEND
  5
C8
100
AcDbEntity
  8
0
  0
POLYLINE
  5
C9
100
AcDbEntity
  8
1
  6
CONTINUOUS
 62
   250
 48
0.1
100
AcDb2dPolyline
 66
     1
 10
0.0
 20
0.0
 30
0.0
 70
   128
  0
VERTEX
  5
CA
100
AcDbEntity
  8
1
  6
CONTINUOUS
 62
   250
 48
0.1
100
AcDbVertex
100
AcDb2dVertex
 10
2.542115
 20
4.767568
 30
0.0
 40
0.0
 41
0.0
  0
VERTEX
  5
CB
100
AcDbEntity
  8
1
  6
CONTINUOUS
 62
   250
 48
0.1
100
AcDbVertex
100
AcDb2dVertex
 10
1.980925
 20
4.767568
 30
0.0
 40
0.0
 41
0.0
  0
SEQEND
  5
CC
100
AcDbEntity
  8
0
  0
POLYLINE
  5
CD
100
AcDbEntity
  8
1
  6
CONTINUOUS
 62
   250
 48
0.1
100
AcDb2dPolyline
 66
     1
 10
0.0
 20
0.0
 30
0.0
 70
   128
  0
VERTEX
  5
CE
100
AcDbEntity
  8
1
  6
CONTINUOUS
 62
   250
 48
0.1
100
AcDbVertex
100
AcDb2dVertex
 10
2.080925
 20
4.747568
 30
0.0
 40
0.0
 41
0.0
  0
VERTEX
  5
CF
100
AcDbEntity
  8
1
  6
CONTINUOUS
 62
   250
 48
0.1
100
AcDbVertex
100
AcDb2dVertex
 10
1.980925
 20
4.767568
 30
0.0
 40
0.0
 41
0.0
  0
VERTEX
  5
D0
100
AcDbEntity
  8
1
  6
CONTINUOUS
 62
   250
 48
0.1
100
AcDbVertex
100
AcDb2dVertex
 10
2.080925
 20
4.787568
 30
0.0
 40
0.0
 41
0.0
  0
SEQEND
  5
D1
100
AcDbEntity
  8
0
  0
POLYLINE
  5
D2
100
AcDbEntity
  8
1
  6
CONTINUOUS
 62
   250
 48
0.1
100
AcDb2dPolyline
 66
     1
 10
0.0
 20
0.0
 30
0.0
 70
   128
  0
VERTEX
  5
D3
100
AcDbEntity
  8
1
  6
CONTINUOUS
 62
   250
 48
0.1
100
AcDbVertex
100
AcDb2dVertex
 10
2.989734
 20
4.767568
 30
0.0
 40
0.0
 41
0.0
  0
VERTEX
  5
D4
100
AcDbEntity
  8
1
  6
CONTINUOUS
 62
   250
 48
0.1
100
AcDbVertex
100
AcDb2dVertex
 10
3.550925
 20
4.767568
 30
0.0
 40
0.0
 41
0.0
  0
SEQEND
  5
D5
100
AcDbEntity
  8
0
  0
POLYLINE
  5
D6
100
AcDbEntity
  8
1
  6
CONTINUOUS
 62
   250
 48
0.1
100
AcDb2dPolyline
 66
     1
 10
0.0
 20
0.0
 30
0.0
 70
   128
  0
VERTEX
  5
D7
100
AcDbEntity
  8
1
  6
CONTINUOUS
 62
   250
 48
0.1
100
AcDbVertex
100
AcDb2dVertex
 10
3.450925
 20
4.787568
 30
0.0
 40
0.0
 41
0.0
  0
VERTEX
  5
D8
100
AcDbEntity
  8
1
  6
CONTINUOUS
 62
   250
 48
0.1
100
AcDbVertex
100
AcDb2dVertex
 10
3.550925
 20
4.767568
 30
0.0
 40
0.0
 41
0.0
  0
VERTEX
  5
D9
100
AcDbEntity
  8
1
  6
CONTINUOUS
 62
   250
 48
0.1
100
AcDbVertex
100
AcDb2dVertex
 10
3.450925
 20
4.747568
 30
0.0
 40
0.0
 41
0.0
  0
SEQEND
  5
DA
100
AcDbEntity
  8
0
  0
TEXT
  5
DB
100
AcDbEntity
  8
1
 62
   250
 48
0.0
100
AcDbText
 10
2.592115
 20
4.717568
 30
0.0
 40
0.1
  1
1.570
 72
     5
 11
2.939734
 21
4.717568
 31
0.0
210
0.0
220
0.0
230
1.0
100
AcDbText
  0
POLYLINE
  5
DC
100
AcDbEntity
  8
1
  6
CONTINUOUS
 62
   250
 48
0.1
100
AcDb2dPolyline
 66
     1
 10
0.0
 20
0.0
 30
0.0
 70
   128
  0
VERTEX
  5
DD
100
AcDbEntity
  8
1
  6
CONTINUOUS
 62
   250
 48
0.1
100
AcDbVertex
100
AcDb2dVertex
 10
1.980925
 20
0.664937
 30
0.0
 40
0.0
 41
0.0
  0
VERTEX
  5
DE
100
AcDbEntity
  8
1
  6
CONTINUOUS
 62
   250
 48
0.1
100
AcDbVertex
100
AcDb2dVertex
 10
1.980925
 20
0.178816
 30
0.0
 40
0.0
 41
0.0
  0
SEQEND
  5
DF
100
AcDbEntity
  8
0
  0
POLYLINE
  5
E0
100
AcDbEntity
  8
1
  6
CONTINUOUS
 62
   250
 48
0.1
100
AcDb2dPolyline
 66
     1
 10
0.0
 20
0.0
 30
0.0
 70
   128
  0
VERTEX
  5
E1
100
AcDbEntity
  8
1
  6
CONTINUOUS
 62
   250
 48
0.1
100
AcDbVertex
100
AcDb2dVertex
 10
2.797924
 20
0.664937
 30
0.0
 40
0.0
 41
0.0
  0
VERTEX
  5
E2
100
AcDbEntity
  8
1
  6
CONTINUOUS
 62
   250
 48
0.1
100
AcDbVertex
100
AcDb2dVertex
 10
2.797924
 20
0.178816
 30
0.0
 40
0.0
 41
0.0
  0
SEQEND
  5
E3
100
AcDbEntity
  8
0
  0
POLYLINE
  5
E4
100
AcDbEntity
  8
1
  6
CONTINUOUS
 62
   250
 48
0.1
100
AcDb2dPolyline
 66
     1
 10
0.0
 20
0.0
 30
0.0
 70
   128
  0
VERTEX
  5
E5
100
AcDbEntity
  8
1
  6
CONTINUOUS
 62
   250
 48
0.1
100
AcDbVertex
100
AcDb2dVertex
 10
2.165615
 20
0.228816
 30
0.0
 40
0.0
 41
0.0
  0
VERTEX
  5
E6
100
AcDbEntity
  8
1
  6
CONTINUOUS
 62
   250
 48
0.1
100
AcDbVertex
100
AcDb2dVertex
 10
1.980925
 20
0.228816
 30
0.0
 40
0.0
 41
0.0
  0
SEQEND
  5
E7
100
AcDbEntity
  8
0
  0
POLYLINE
  5
E8
100
AcDbEntity
  8
1
  6
CONTINUOUS
 62
   250
 48
0.1
100
AcDb2dPolyline
 66
     1
 10
0.0
 20
0.0
 30
0.0
 70
   128
  0
VERTEX
  5
E9
100
AcDbEntity
  8
1
  6
CONTINUOUS
 62
   250
 48
0.1
100
AcDbVertex
100
AcDb2dVertex
 10
2.080925
 20
0.208816
 30
0.0
 40
0.0
 41
0.0
  0
VERTEX
  5
EA
100
AcDbEntity
  8
1
  6
CONTINUOUS
 62
   250
 48
0.1
100
AcDbVertex
100
AcDb2dVertex
 10
1.980925
 20
0.228816
 30
0.0
 40
0.0
 41
0.0
  0
VERTEX
  5
EB
100
AcDbEntity
  8
1
  6
CONTINUOUS
 62
   250
 48
0.1
100
AcDbVertex
100
AcDb2dVertex
 10
2.080925
 20
0.248816
 30
0.0
 40
0.0
 41
0.0
  0
SEQEND
  5
EC
100
AcDbEntity
  8
0
  0
POLYLINE
  5
ED
100
AcDbEntity
  8
1
  6
CONTINUOUS
 62
   250
 48
0.1
100
AcDb2dPolyline
 66
     1
 10
0.0
 20
0.0
 30
0.0
 70
   128
  0
VERTEX
  5
EE
100
AcDbEntity
  8
1
  6
CONTINUOUS
 62
   250
 48
0.1
100
AcDbVertex
100
AcDb2dVertex
 10
2.613234
 20
0.228816
 30
0.0
 40
0.0
 41
0.0
  0
VERTEX
  5
EF
100
AcDbEntity
  8
1
  6
CONTINUOUS
 62
   250
 48
0.1
100
AcDbVertex
100
AcDb2dVertex
 10
2.797924
 20
0.228816
 30
0.0
 40
0.0
 41
0.0
  0
SEQEND
  5
F0
100
AcDbEntity
  8
0
  0
POLYLINE
  5
F1
100
AcDbEntity
  8
1
  6
CONTINUOUS
 62
   250
 48
0.1
100
AcDb2dPolyline
 66
     1
 10
0.0
 20
0.0
 30
0.0
 70
   128
  0
VERTEX
  5
F2
100
AcDbEntity
  8
1
  6
CONTINUOUS
 62
   250
 48
0.1
100
AcDbVertex
100
AcDb2dVertex
 10
2.697925
 20
0.248816
 30
0.0
 40
0.0
 41
0.0
  0
VERTEX
  5
F3
100
AcDbEntity
  8
1
  6
CONTINUOUS
 62
   250
 48
0.1
100
AcDbVertex
100
AcDb2dVertex
 10
2.797924
 20
0.228816
 30
0.0
 40
0.0
 41
0.0
  0
VERTEX
  5
F4
100
AcDbEntity
  8
1
  6
CONTINUOUS
 62
   250
 48
0.1
100
AcDbVertex
100
AcDb2dVertex
 10
2.697925
 20
0.208816
 30
0.0
 40
0.0
 41
0.0
  0
SEQEND
  5
F5
100
AcDbEntity
  8
0
  0
TEXT
  5
F6
100
AcDbEntity
  8
1
 62
   250
 48
0.0
100
AcDbText
 10
2.215615
 20
0.178816
 30
0.0
 40
0.1
  1
0.817
 50
0.00001
 72
     5
 11
2.563234
 21
0.178816
 31
0.0
210
0.0
220
0.0
230
1.0
100
AcDbText
  0
POLYLINE
  5
F7
100
AcDbEntity
  8
1
  6
CONTINUOUS
 62
   250
 48
0.1
100
AcDb2dPolyline
 66
     1
 10
0.0
 20
0.0
 30
0.0
 70
   128
  0
VERTEX
  5
F8
100
AcDbEntity
  8
1
  6
CONTINUOUS
 62
   250
 48
0.1
100
AcDbVertex
100
AcDb2dVertex
 10
3.300925
 20
4.114938
 30
0.0
 40
0.0
 41
0.0
  0
VERTEX
  5
F9
100
AcDbEntity
  8
1
  6
CONTINUOUS
 62
   250
 48
0.1
100
AcDbVertex
100
AcDb2dVertex
 10
3.300925
 20
4.425786
 30
0.0
 40
0.0
 41
0.0
  0
SEQEND
  5
FA
100
AcDbEntity
  8
0
  0
POLYLINE
  5
FB
100
AcDbEntity
  8
1
  6
CONTINUOUS
 62
   250
 48
0.1
100
AcDb2dPolyline
 66
     1
 10
0.0
 20
0.0
 30
0.0
 70
   128
  0
VERTEX
  5
FC
100
AcDbEntity
  8
1
  6
CONTINUOUS
 62
   250
 48
0.1
100
AcDbVertex
100
AcDb2dVertex
 10
3.550925
 20
4.114938
 30
0.0
 40
0.0
 41
0.0
  0
VERTEX
  5
FD
100
AcDbEntity
  8
1
  6
CONTINUOUS
 62
   250
 48
0.1
100
AcDbVertex
100
AcDb2dVertex
 10
3.550925
 20
4.425786
 30
0.0
 40
0.0
 41
0.0
  0
SEQEND
  5
FE
100
AcDbEntity
  8
0
  0
POLYLINE
  5
FF
100
AcDbEntity
  8
1
  6
CONTINUOUS
 62
   250
 48
0.1
100
AcDb2dPolyline
 66
     1
 10
0.0
 20
0.0
 30
0.0
 70
   128
  0
VERTEX
  5
100
100
AcDbEntity
  8
1
  6
CONTINUOUS
 62
   250
 48
0.1
100
AcDbVertex
100
AcDb2dVertex
 10
3.100925
 20
4.375786
 30
0.0
 40
0.0
 41
0.0
  0
VERTEX
  5
101
100
AcDbEntity
  8
1
  6
CONTINUOUS
 62
   250
 48
0.1
100
AcDbVertex
100
AcDb2dVertex
 10
3.300925
 20
4.375786
 30
0.0
 40
0.0
 41
0.0
  0
SEQEND
  5
102
100
AcDbEntity
  8
0
  0
POLYLINE
  5
103
100
AcDbEntity
  8
1
  6
CONTINUOUS
 62
   250
 48
0.1
100
AcDb2dPolyline
 66
     1
 10
0.0
 20
0.0
 30
0.0
 70
   128
  0
VERTEX
  5
104
100
AcDbEntity
  8
1
  6
CONTINUOUS
 62
   250
 48
0.1
100
AcDbVertex
100
AcDb2dVertex
 10
3.200925
 20
4.395786
 30
0.0
 40
0.0
 41
0.0
  0
VERTEX
  5
105
100
AcDbEntity
  8
1
  6
CONTINUOUS
 62
   250
 48
0.1
100
AcDbVertex
100
AcDb2dVertex
 10
3.300925
 20
4.375786
 30
0.0
 40
0.0
 41
0.0
  0
VERTEX
  5
106
100
AcDbEntity
  8
1
  6
CONTINUOUS
 62
   250
 48
0.1
100
AcDbVertex
100
AcDb2dVertex
 10
3.200925
 20
4.355786
 30
0.0
 40
0.0
 41
0.0
  0
SEQEND
  5
107
100
AcDbEntity
  8
0
  0
POLYLINE
  5
108
100
AcDbEntity
  8
1
  6
CONTINUOUS
 62
   250
 48
0.1
100
AcDb2dPolyline
 66
     1
 10
0.0
 20
0.0
 30
0.0
 70
   128
  0
VERTEX
  5
109
100
AcDbEntity
  8
1
  6
CONTINUOUS
 62
   250
 48
0.1
100
AcDbVertex
100
AcDb2dVertex
 10
3.750925
 20
4.375786
 30
0.0
 40
0.0
 41
0.0
  0
VERTEX
  5
10A
100
AcDbEntity
  8
1
  6
CONTINUOUS
 62
   250
 48
0.1
100
AcDbVertex
100
AcDb2dVertex
 10
3.550925
 20
4.375786
 30
0.0
 40
0.0
 41
0.0
  0
SEQEND
  5
10B
100
AcDbEntity
  8
0
  0
POLYLINE
  5
10C
100
AcDbEntity
  8
1
  6
CONTINUOUS
 62
   250
 48
0.1
100
AcDb2dPolyline
 66
     1
 10
0.0
 20
0.0
 30
0.0
 70
   128
  0
VERTEX
  5
10D
100
AcDbEntity
  8
1
  6
CONTINUOUS
 62
   250
 48
0.1
100
AcDbVertex
100
AcDb2dVertex
 10
3.650925
 20
4.355786
 30
0.0
 40
0.0
 41
0.0
  0
VERTEX
  5
10E
100
AcDbEntity
  8
1
  6
CONTINUOUS
 62
   250
 48
0.1
100
AcDbVertex
100
AcDb2dVertex
 10
3.550925
 20
4.375786
 30
0.0
 40
0.0
 41
0.0
  0
VERTEX
  5
10F
100
AcDbEntity
  8
1
  6
CONTINUOUS
 62
   250
 48
0.1
100
AcDbVertex
100
AcDb2dVertex
 10
3.650925
 20
4.395786
 30
0.0
 40
0.0
 41
0.0
  0
SEQEND
  5
110
100
AcDbEntity
  8
0
  0
TEXT
  5
111
100
AcDbEntity
  8
1
 62
   250
 48
0.0
100
AcDbText
 10
3.800925
 20
4.325786
 30
0.0
 40
0.1
  1
0.250
 72
     5
 11
4.178068
 21
4.325786
 31
0.0
210
0.0
220
0.0
230
1.0
100
AcDbText
  0
POLYLINE
  5
112
100
AcDbEntity
  8
1
  6
CONTINUOUS
 62
   250
 48
0.1
100
AcDb2dPolyline
 66
     1
 10
0.0
 20
0.0
 30
0.0
 70
   128
  0
VERTEX
  5
113
100
AcDbEntity
  8
1
  6
CONTINUOUS
 62
   250
 48
0.1
100
AcDbVertex
100
AcDb2dVertex
 10
2.800925
 20
4.114938
 30
0.0
 40
0.0
 41
0.0
  0
VERTEX
  5
114
100
AcDbEntity
  8
1
  6
CONTINUOUS
 62
   250
 48
0.1
100
AcDbVertex
100
AcDb2dVertex
 10
2.800925
 20
4.425786
 30
0.0
 40
0.0
 41
0.0
  0
SEQEND
  5
115
100
AcDbEntity
  8
0
  0
POLYLINE
  5
116
100
AcDbEntity
  8
1
  6
CONTINUOUS
 62
   250
 48
0.1
100
AcDb2dPolyline
 66
     1
 10
0.0
 20
0.0
 30
0.0
 70
   128
  0
VERTEX
  5
117
100
AcDbEntity
  8
1
  6
CONTINUOUS
 62
   250
 48
0.1
100
AcDbVertex
100
AcDb2dVertex
 10
3.300925
 20
4.114938
 30
0.0
 40
0.0
 41
0.0
  0
VERTEX
  5
118
100
AcDbEntity
  8
1
  6
CONTINUOUS
 62
   250
 48
0.1
100
AcDbVertex
100
AcDb2dVertex
 10
3.300925
 20
4.425786
 30
0.0
 40
0.0
 41
0.0
  0
SEQEND
  5
119
100
AcDbEntity
  8
0
  0
POLYLINE
  5
11A
100
AcDbEntity
  8
1
  6
CONTINUOUS
 62
   250
 48
0.1
100
AcDb2dPolyline
 66
     1
 10
0.0
 20
0.0
 30
0.0
 70
   128
  0
VERTEX
  5
11B
100
AcDbEntity
  8
1
  6
CONTINUOUS
 62
   250
 48
0.1
100
AcDbVertex
100
AcDb2dVertex
 10
2.600925
 20
4.375786
 30
0.0
 40
0.0
 41
0.0
  0
VERTEX
  5
11C
100
AcDbEntity
  8
1
  6
CONTINUOUS
 62
   250
 48
0.1
100
AcDbVertex
100
AcDb2dVertex
 10
2.800925
 20
4.375786
 30
0.0
 40
0.0
 41
0.0
  0
SEQEND
  5
11D
100
AcDbEntity
  8
0
  0
POLYLINE
  5
11E
100
AcDbEntity
  8
1
  6
CONTINUOUS
 62
   250
 48
0.1
100
AcDb2dPolyline
 66
     1
 10
0.0
 20
0.0
 30
0.0
 70
   128
  0
VERTEX
  5
11F
100
AcDbEntity
  8
1
  6
CONTINUOUS
 62
   250
 48
0.1
100
AcDbVertex
100
AcDb2dVertex
 10
2.700925
 20
4.395786
 30
0.0
 40
0.0
 41
0.0
  0
VERTEX
  5
120
100
AcDbEntity
  8
1
  6
CONTINUOUS
 62
   250
 48
0.1
100
AcDbVertex
100
AcDb2dVertex
 10
2.800925
 20
4.375786
 30
0.0
 40
0.0
 41
0.0
  0
VERTEX
  5
121
100
AcDbEntity
  8
1
  6
CONTINUOUS
 62
   250
 48
0.1
100
AcDbVertex
100
AcDb2dVertex
 10
2.700925
 20
4.355786
 30
0.0
 40
0.0
 41
0.0
  0
SEQEND
  5
122
100
AcDbEntity
  8
0
  0
POLYLINE
  5
123
100
AcDbEntity
  8
1
  6
CONTINUOUS
 62
   250
 48
0.1
100
AcDb2dPolyline
 66
     1
 10
0.0
 20
0.0
 30
0.0
 70
   128
  0
VERTEX
  5
124
100
AcDbEntity
  8
1
  6
CONTINUOUS
 62
   250
 48
0.1
100
AcDbVertex
100
AcDb2dVertex
 10
3.500925
 20
4.375786
 30
0.0
 40
0.0
 41
0.0
  0
VERTEX
  5
125
100
AcDbEntity
  8
1
  6
CONTINUOUS
 62
   250
 48
0.1
100
AcDbVertex
100
AcDb2dVertex
 10
3.300925
 20
4.375786
 30
0.0
 40
0.0
 41
0.0
  0
SEQEND
  5
126
100
AcDbEntity
  8
0
  0
POLYLINE
  5
127
100
AcDbEntity
  8
1
  6
CONTINUOUS
 62
   250
 48
0.1
100
AcDb2dPolyline
 66
     1
 10
0.0
 20
0.0
 30
0.0
 70
   128
  0
VERTEX
  5
128
100
AcDbEntity
  8
1
  6
CONTINUOUS
 62
   250
 48
0.1
100
AcDbVertex
100
AcDb2dVertex
 10
3.400925
 20
4.355786
 30
0.0
 40
0.0
 41
0.0
  0
VERTEX
  5
129
100
AcDbEntity
  8
1
  6
CONTINUOUS
 62
   250
 48
0.1
100
AcDbVertex
100
AcDb2dVertex
 10
3.300925
 20
4.375786
 30
0.0
 40
0.0
 41
0.0
  0
VERTEX
  5
12A
100
AcDbEntity
  8
1
  6
CONTINUOUS
 62
   250
 48
0.1
100
AcDbVertex
100
AcDb2dVertex
 10
3.400925
 20
4.395786
 30
0.0
 40
0.0
 41
0.0
  0
SEQEND
  5
12B
100
AcDbEntity
  8
0
  0
TEXT
  5
12C
100
AcDbEntity
  8
1
 62
   250
 48
0.0
100
AcDbText
 10
2.177591
 20
4.325786
 30
0.0
 40
0.1
  1
0.500
 72
     5
 11
2.550925
 21
4.325786
 31
0.0
210
0.0
220
0.0
230
1.0
100
AcDbText
  0
ENDSEC
  0
SECTION
  2
OBJECTS
  0
DICTIONARY
  5
19
100
AcDbDictionary
  3
ACAD_GROUP
350
1A
  3
ACAD_MLINESTYLE
350
1B
  0
DICTIONARY
  5
1A
102
{ACAD_REACTORS
330
19
102
}
100
AcDbDictionary
  0
DICTIONARY
  5
1B
102
{ACAD_REACTORS
330
19
102
}
100
AcDbDictionary
  3
STANDARD
350
1C
  0
MLINESTYLE
  5
1C
102
{ACAD_REACTORS
330
1B
102
}
100
AcDbMlineStyle
  2
STANDARD
 70
     0
  3

 62
     0
 51
90.0
 52
90.0
 71
     2
 49
0.5
 62
   256
  6
BYLAYER
 49
-0.5
 62
   256
  6
BYLAYER
  0
ENDSEC
  0
EOF
